Overfly (Sword Art Online) Guitar Tab

Submitted: Mar 01, 2016 by MechaKrauser (Last updated: Mar 09, 2018)

5
Average: 5 (5 votes)
Download | Listen
Game: Sword Art Online
Composer(s): Aoi Eir
Style: Arrangement, Fingerstyle

AutoScroll: Slow | Medium | Fast
Overfly
from Sword Art Online
performed by Luna Haruna
words and music by Saku
tab by MechaKrauser

DADGAD tuning, capo on 1
4/4 time, 130bpm

*I've added alternate bars for the 3rd and 4th bars of each Pre-Chorus, omitting the trill
and adding open notes, at the end of the txt tab, and as a second track in the gp5/midi

  [Intro]

     E  E  E  E  E  E  E  E     E  E  E  E  E  E  E  E     E  E  E  E  E  E  E  E   
D||--------0-----------------|--0-----------------------|--------0-----------------|
A||-----------------0--------|-----------0--------0-----|-----------------0--------|
G||-----0--------0--------0--|--------0--------0-----0--|-----0--------0--------0--|
D||--0--------0--------0-----|-----0--------0-----------|--0--------0--------0-----|
A||--------------------------|--3-----------------------|--------------------------|
D||--2-----------------------|--------------------------|--0-----------------------|


  E  E  E  E  E  E  E  E     E  E  E  E  E  E  E  E     E  E  E  E  E  E  E  E   
--0-----------------------|--------0-----------------|--0-----------------------|
-----------0--------0-----|-----------------0--------|-----------0--------0-----|
--------0--------0-----0--|-----0--------0--------0--|--------0--------0-----0--|
-----0--------0-----------|--0--------0--------0-----|-----0--------0-----------|
--------------------------|--------------------------|--3-----------------------|
--5-----------------------|--2-----------------------|--------------------------|


                                                      [Intro Chorus]
													  
  E  E  E  E  E  E  E  E     E  E  E  E  E  S S E  E     E  E  E  E  E  S S E  E   
--------0-----------------|--0------------------------|---------------------------|
-----------------0--------|---------------------------|------------------------0--|
-----0--------0--------0--|--------0-----0--L------0--|--------0-----0--L---------|
--0--------0--------0-----|-----0-----0-------4-L-----|-----0-----0-------4-------|
--------------------------|---------------------------|---------------------------|
--0-----------------------|--5------------------------|--2-----------2------2-----|


  E  E  Q    E  E  E  E     Q    E  E  E  E  E  E     E  E  E  E  E  S S E  E   
-------------------------|-------------------------|-------------------0----0--|
-------------------------|--0----0--2-----3-----2--|---------------------------|
--------0-------0-----0--|-------------------------|--------0-----0--L---------|
-----0-------------4-----|-------------0-----0-----|-----0-----0---------0-----|
--3----------3-----------|-------------------------|---------------------------|
-------------------------|--0----------------------|--5-----------5------------|


                                                        *Don't bar                       
  E  E  E  E  E  S S E  E     Q    E  E  E  E  E  E     E  E  E  E  E  E  E  E   
-------------------0----0--|-------------------------|--------------------------|
---------------------------|----------------------0--|--2-----3--2--L--0--------|
--------0-----0--L---------|--0-------0--------0-----|--------------------0--0--|
-----0-----0---------0-----|-------0--------4--------|--2--2-----------0--------|
---------------------------|--3----------3-----------|--------------------------|
--2-----------2------------|-------------------------|--2--2-----------0--------|



 [Intro Guitar Solo]
  ^                                   ^             ^                      
  Q    E  E  E  E  Q       E  E  Q    E  E  Q       Q    E  E  E  E  Q     
----------0--L----------|------------------------|----------0--L----------|
------------------------|------------------------|------------------------|
--0----------------0----|----------------0-------|--0----------------0----|
-------0--------0-------|-----4--L----4-----0----|-------0--------0-------|
------------------------|--3----------3----------|------------------------|
--2---------------------|------------------------|--0---------------------|


             ^             ^                                   ^           
  E  E  Q    E  E  Q       Q    E  E  E  E  Q       E  E  Q    E  E  Q     
------------------------|----------0--L----------|------------------------|
-----0--L----3--2-------|------------------------|------------------------|
-------------------0----|--0----------------0----|----------------0-------|
-------------0----------|-------0--------0-------|-----4--L----4-----0----|
------------------------|------------------------|--3----------3----------|
--5----------5----------|--2---------------------|------------------------|


                                                       [Verse 1]
  ^                                                                                
  E  E  E  E  E  E  E  E     E  E  E  E  E   E   E  E     E  E  E  E  E  E  E  E   
-----------------------0--|--L-------------------------|--------------------------|
-----------0--------0-----|-----------0--3s--2p--0-----|--------2--2--2--2--2--2--|
--0-----0--------0--------|--------0----------------0--|--------------------------|
-----4--------0-----------|-----4----------------------|-----0--------------------|
-----------------3-----3--|--L-----------3-------------|--2-----------------------|
--2-----------------------|----------------------------|--------------------------|


  E  E  E  E  H           E  E  E  E  Q    E  E     E  E  E  E  H         
-----------------------|-------------------------|-----------------------|
--3--2--L--------------|--------2--2--2----2--2--|--3--2--L--------------|
-----------0-----------|-------------------------|-----------0-----------|
-----------------------|-----0-------------------|-----------------------|
--2-----------2--------|--3----------------------|--3-----------3--------|
-----------------------|-------------------------|-----------------------|


  E  E  E  E  E  E  E  E     E  E  E  E  E  E  E  E     Q    E  E  Q    E  E   
-----------------------2--|-----0--L-----------------|------------------------|
--------2--2--2--2--2--2--|-----------2-----0--L-----|--0------------------0--|
--------------------------|-----------0-----------0--|-------0--0-------------|
-----0--------------------|-----0--L--------0--L-----|------------------------|
--------------------------|--------------------------|--3----------3----------|
--2-----------------------|--0-----------0-----------|------------------------|


  Q    E  E  E  E  Q       E  E  E  E  E  E  E  E     E  E  E  E  H         
------------------------|--------------------------|-----------------------|
--2----0--------0--L----|--------2--2--2--2--2--2--|--3--2-----------------|
----------0-------------|--------------------------|--------0--0-----------|
------------------------|-----0--------------------|-----------------------|
--3----------3----------|--2-----------------------|--2-----------2--------|
------------------------|--------------------------|-----------------------|


  E  E  E  E  E  E  E  E     E  E  E  E  H           E  E  E  E  E  E  E  E   
--------------------------|-----------------------|--------------------------|
--------2--2--2--2--2--2--|--3--2-----------------|--------2--2--2--2--2--2--|
--------------------------|--------0--0-----------|--------------------------|
-----0--------------------|-----------------------|-----0--------------------|
--3-----------------------|--3-----------3--------|--------------------------|
--------------------------|-----------------------|--2-----------------------|


  E  S S E  E  E  E  E  E     Q    E  E  Q    E  E     Q    E  E  E  E  Q     
--2--L-0-L-----------------|------------------------|------------------------|
--2--L------2-----0--L-----|--0------------------0--|--2----0--------0--L----|
------------0-----------2--|-------0--0-------------|----------0-------------|
-------0-L--------0--L-----|------------------------|------------------------|
---------------------------|--3----------3----------|--3----------3----------|
--0------------0-----------|------------------------|------------------------|


 [Pre-Chorus]
                                                                    |--3--|              
  E  E  S S S S E  E  E  E     E  S S E  E  E  E  Q       E  E  E   S  S  S E  E  E  E   
--------0-0-0-0-0--0-----0--|--2--L-0-L--------0--L----|--------------------------------|
----------------------------|--0--L------2-------------|--------5p--2h-5p-2-5--5-----5--|
-----0----------0--0--------|-------0-L----------------|--------------------------------|
----------------------------|--------------------------|-----5--------------5--5--------|
--0-------------0-----------|--0------------0----------|--2-----------------2-----------|
----------------------------|--------------------------|--------------------------------|


                                ^ v ^ v ^  ^     ^                             
  Q    E  E  E  E  Q       Q    S S S S E  E  E  E     Q    E  E  E  E  E  E   
--2----4--2-------------|-------0-0-0-0-0--0-----0--|--2----0--------0--L--0--|
--2-------------5--L----|-------5-5-5-5-5--5-----5--|--3-------2--------------|
------------------------|-------0-0-0-0-0--0-----0--|-------0--0-----0--L--0--|
------------------------|---------------------------|-------------------------|
--2----------2----------|--3------------------------|--3----------3-----------|
------------------------|---------------------------|-------------------------|


                                         ^                                 
  Q    E  E  Q    E  E     Q    E  E  E  E  Q       H        E  S S E  E   
--2-------0--0-------0--|--2----0--2-----4--L----|--L---------------------|
--0-------0--0-------0--|--0-------0-------------|------------------------|
-------------2----------|-------0----------------|-----------0--L------0--|
-------0----------0-----|----------------4--L----|--L-------------4-L-----|
------------------------|----------------5--L----|--L---------------------|
--0----------0----------|--5----------0----------|------------------------|


 [Chorus]

  E  E  E  E  E  S S E  E     E  E  Q    E  E  E  E     Q    E  E  E  E  E  E   
---------------------------|-------------------------|-------------------------|
------------------------0--|-------------------------|--0----0--2-----3-----2--|
--------0-----0--L---------|--------0-------0-----0--|-------------------------|
-----0-----0-------4-------|-----0-------------4-----|-------------0-----0-----|
---------------------------|--3----------3-----------|-------------------------|
--2-----------2------2-----|-------------------------|--0----------------------|


  Q    E  E  E  S S E  E     Q    E  E  E  S S E  E     E  E  Q    E  E  E  E   
--------------------------|--------------------------|-------------------------|
--------------------------|-----------------------0--|-------------------------|
--0-------0--0--L------0--|----------0--0--L---------|--------0-------0-----0--|
-------0----------4-------|-------0----------4-------|-----0-------------4-----|
--------------------------|--------------------------|--3----------3-----------|
--5----------5------5-----|--2----------2------2-----|-------------------------|


  Q    E  E  E  E  E  S S    Q    E  E  E  S S E  E     Q    E  E  E  S S E  E   
--------------------------|--------------------------|--------------------------|
--0----0--2-----0---------|--------------------------|-----------------------0--|
----------------------0-0-|----------0--0--L------0--|----------0--0--L---------|
-------------0-----0------|-------0----------4-------|-------0----------4-------|
--------------------------|--------------------------|--------------------------|
--0-----------------------|--5----------5------5-----|--2----------2------2-----|


  E  E  Q    E  E  E  E     Q    E  E  E  E  E  E     E  E  E  E  E  S S E  E   
-------------------------|-------------------------|-------------------0----0--|
-------------------------|--0----0--2-----3-----2--|---------------------------|
--------0-------0-----0--|-------------------------|--------0-----0--L---------|
-----0-------------4-----|-------------0-----0-----|-----0-----0---------0-----|
--3----------3-----------|-------------------------|---------------------------|
-------------------------|--0----------------------|--5-----------5------------|


  E  E  E  E  E  S S E  E     Q    E  E  E  E  E  E     E  E  E  E  E  E  E  E   
-------------------0----0--|-------------------------|--------------------------|
---------------------------|----------------------0--|--2-----3--2--L--0--------|
--------0-----0--L---------|--0-------0--------0-----|--------------------0--0--|
-----0-----0---------0-----|-------0--------4--------|--2--2-----0--L-----------|
---------------------------|--3----------3-----------|--------------------------|
--2-----------2------------|-------------------------|--2--2-----0--L-----------|


 [Reprise]

  E  E  E  E  E  E  E  E     E  E  E  E  E  E  E  E     E  E  E  E  E  E  E  E   
--------0-----------------|--0-----------------------|--------0-----------------|
-----------------0--------|-----------0--------0-----|-----------------0--------|
-----0--------0--------0--|--------0--------0-----0--|-----0--------0--------0--|
--0--------0--------0-----|-----0--------0-----------|--0--------0--------0-----|
--------------------------|--3-----------------------|--------------------------|
--2-----------------------|--------------------------|--0-----------------------|


  E  E  E  E  E  E  E  E     E  E  E  E  E  E  E  E     E  E  E  E  E  E  E  E   
--0-----------------------|--------0-----------------|--0-----------------------|
-----------0--------0-----|-----------------0--------|-----------0--------0-----|
--------0--------0-----0--|-----0--------0--------0--|--------0--------0-----0--|
-----0--------0-----------|--0--------0--------0-----|-----0--------0-----------|
--------------------------|--------------------------|--3-----------------------|
--5-----------------------|--2-----------------------|--------------------------|


                                                     [Verse 2]

  E  E  E  E  E  E  E  E     E  E  E  E  E  E  E  E     E  E  E  E  E  E  E  E   
--------0-----------------|--0-----------------------|--------------------------|
-----------------0--------|-----------0--------0-----|--------2--2--2--2--2--2--|
-----0--------0--------0--|--------0--------0-----0--|--------------------------|
--0--------0--------0-----|-----0--------0-----------|-----0--------------------|
--------------------------|--------------------------|--2-----------------------|
--0-----------------------|--5-----------------------|--------------------------|


  E  E  E  E  H           E  E  E  E  E  E  E  E     E  E  E  E  H         
-----------------------|--------------------------|-----------------------|
--3--2--L--------------|--------2--2--2--2--2--2--|--3--2--L--------------|
-----------0-----------|--------------------------|-----------0-----------|
-----------------------|-----0--------------------|-----------------------|
--2-----------2--------|--3-----------------------|--3-----------3--------|
-----------------------|--------------------------|-----------------------|


  E  E  E  E  E  E  E  E     E  S S E  E  E  E  E  E     Q    E  E  Q    E  E   
--------------------------|--2--L-0-L-----------------|------------------------|
--------2--2--2--2--2--2--|--2--L------2-----0--L-----|--0------------------0--|
--------------------------|------------0-----------2--|-------0--0-------------|
-----0--------------------|-------0-L--------0--L-----|------------------------|
--------------------------|---------------------------|--3----------3----------|
--2-----------------------|--0------------0-----------|------------------------|


                        [Pre-Chorus 2]

  Q    E  E  E  E  Q       E  E  S S S S E  E  E  E     E  S S E  E  E  E  Q     
------------------------|--------0-0-0-0-0--0-----0--|--2--L-0-L--------0--L----|
--2----0--------0--L----|----------------------------|--0--L------2-------------|
----------0-------------|-----0----------0--0--------|-------0-L----------------|
------------------------|----------------------------|--------------------------|
--3----------3----------|--0-------------0-----------|--0------------0----------|
------------------------|----------------------------|--------------------------|


                                                                ^ v ^ ^ v  ^     ^   
        |--3-|                                                                       
  E  E  S  S S S S E  E  E  E     Q    E  E  E  E  Q       Q    S S S S E  E  E  E   
-------------------------------|--2----4--2-------------|-------0-0-L-0-0--0-----0--|
--------2h-5-L-L-5-5--5-----5--|--2----------5--5--L----|-------5-5-L-5-5--5-----5--|
-------------------------------|------------------------|-------0-0-L-0-0--0-----0--|
-----5-------------5--5--------|----------------5--L----|---------------------------|
--2----------------2-----------|--2----------2----------|--3------------------------|
-------------------------------|------------------------|---------------------------|


                                                                   ^        
  Q    E  E  E  E  E  E     Q    E  E  Q    E  E     Q    E  E  E  E  Q     
--2----0--------0--L--0--|--2-------0--0-------0--|--2----0--2-----4--L----|
--3-------2--------------|--0-------0--0-------0--|--0-------0-------------|
-------0--0-----0--L--0--|-------------2----------|-------0----------------|
-------------------------|-------0----------0-----|----------------4--L----|
--3----------3-----------|------------------------|----------------5--L----|
-------------------------|--0----------0----------|--5----------0----------|


                        [Chorus 2]

  H        E  S S E  E     E  E  E  E  E  S S E  E     E  E  Q    E  E  E  E   
--L---------------------|---------------------------|-------------------------|
------------------------|------------------------0--|-------------------------|
-----------0--L------0--|--------0-----0--L---------|--------0-------0-----0--|
--L-------------4-L-----|-----0-----0-------4-------|-----0-------------4-----|
--L---------------------|---------------------------|--3----------3-----------|
------------------------|--2-----------2------2-----|-------------------------|


  Q    E  E  E  E  E  E     Q    E  E  E  S S E  E     Q    E  E  E  S S E  E   
-------------------------|--------------------------|--------------------------|
--0----0--2-----3-----2--|--------------------------|-----------------------0--|
-------------------------|--0-------0--0--L------0--|----------0--0--L---------|
-------------0-----0-----|-------0----------4-------|-------0----------4-------|
-------------------------|--------------------------|--------------------------|
--0----------------------|--5----------5------5-----|--2----------2------2-----|


  E  E  Q    E  E  E  E     Q    E  E  E  E  E  E     Q    E  E  E  S S E  E   
-------------------------|-------------------------|--------------------------|
-------------------------|--0----0--2-----0--------|--------------------------|
--------0-------0-----0--|----------------------0--|----------0--0--L------0--|
-----0-------------4-----|-------------0-----0-----|-------0----------4-------|
--3----------3-----------|-------------------------|--------------------------|
-------------------------|--0----------------------|--5----------5------5-----|


  Q    E  E  E  S S E  E     E  E  Q    E  E  E  E     Q    E  E  E  E  E  E   
--------------------------|-------------------------|-------------------------|
-----------------------0--|-------------------------|--0----0--2-----3-----2--|
----------0--0--L---------|--------0-------0-----0--|-------------------------|
-------0----------4-------|-----0-------------4-----|-------------0-----0-----|
--------------------------|--3----------3-----------|-------------------------|
--2----------2------2-----|-------------------------|--0----------------------|


  E  E  E  E  E  S S E  E     E  E  E  E  E  S S E  E     Q    E  E  E  E  E  E   
-------------------0----0--|-------------------0----0--|-------------------------|
---------------------------|---------------------------|----------------------0--|
--------0-----0--L---------|--------0-----0--L---------|--0-------0--------0-----|
-----0-----0---------0-----|-----0-----0---------0-----|-------0--------4--------|
---------------------------|---------------------------|--3----------3-----------|
--5-----------5------------|--2-----------2------------|-------------------------|


                          [Interlude]

  E  E  E  E  E  E  E  E     Q    Q    E  E  E  E     E  S S E  E  E  E  E  E   
--------------------------|---------------5--5--5--|--4--L-5-L--7-----2--2--2--|
--2-----3--2--L--0--------|------------------------|---------------------------|
--------------------0--0--|-------0----L-----------|--0------------0--------2--|
--2--2-----0--L-----------|------------------------|---------------------------|
--------------------------|--3---------------------|--3------------------------|
--2--2-----0--L-----------|------------------------|---------------------------|


  E  E  Q    E  E  E  E     E  E  E  E  E  E  E  E     Q    Q    E  E  E  E   
-----0--L-------0--0--0--|--0-----------------0--0--|---------------5--5--5--|
-------------------------|-----3--L--2-----3--------|------------------------|
-----2--L----------------|-----------------------0--|-------0----L-----------|
-------------0-----------|--------------0-----------|------------------------|
--2----------------------|--2-----------------------|--0---------------------|
-------------------------|--------------------------|------------------------|


  E  S S E  E  E  E  E  E     E  E  E  E  E  E  E  E     Q    E  E  E  E  E  E   
--4--L-5-L--7-----4--L--4--|--5--5--5--5--5--7--L--4--|-------------------------|
--2---------5-----2--L-----|--3--3--3--3--3--3--L-----|----------------------0--|
---------------0-----------|--------------------------|-------0-----0-----0-----|
---------------------------|--------------------------|--0-------0-----4--------|
--2------------------------|--3-----------------------|-------------------0-----|
---------------------------|--------------------------|--0----0-----0-----------|


 [Guitar Solo]

    Q    E  E  E  E    E  E     E  E  Q    E  E  E  E   
--4g5-------4--L-----0g2--5--|----------------0--------|
-----------------------------|-------------------3--2--|
----0-------------0----------|--------0----------------|
---------0-------------------|-----4-------0-----------|
----3------------------------|--3----------------------|
-----------------------------|-------------------------|


  *Bar 2           *Don't bar                                        
                   ^                                                 
  |---3--|                                                           
  E   E  E  E  S S E  E  E  E     E  S S E    E  E  E  Q     
-------------------------------|----------------------------|
--3h--5--L--3--L-3-2-----------|-------0----2g3-----2-------|
----------------------0-----0--|--0--L---0----------0--0----|
--2---------2--L---2-----2-----|--2--L--------2--------2----|
-------------------------------|----------------------------|
--2----------------2-----------|--2--------------2----------|


  ^                  ^                                             
                                              |--3--|              
  E  E  E  S S E  E  E  E       E  E  E    E  S  S  S E  S  S S S  
------------------------0--|--0g2--5--7--7g9--Lh-7p-5-7--L\-----0-|
--0---------------0--2-----|-------------5g7--L-------5--L\---5---|
---------------0-----------|--------------------------0--L--------|
--------0--L-2-------2-----|--------------------------------------|
--0--3---------0-----------|----2--L------------------------------|
---------------------------|--------------------------------------|


  E   S S S  S E  S S  S S S S E       Q    E  S S   E  E  E  E   
----------------------------------|------------------------------|
--5p--3-3-Ls-2-2--3-Ls-2-2-L------|---------0--L-0---------0--2--|
--0------------0--0------0-L---0--|--0g2-----------2g0--0--------|
-------------------------------0--|----0-------------------------|
--3---------------3---------------|------------------------------|
----------------------------------|----0-------------0-----------|


                          [Final Chorus]

  Q    E  E  E  S S E  E     E  E  E  E  E  S S E  E     E  E  Q    E  E  E  E   
--0-----------------------|---------------------------|-------------------------|
--------------------------|------------------------0--|-------------------------|
-------------0--L------0--|--------0-----0--L---------|--------0-------0-----0--|
--0-------4-------4-L-----|-----0-----0-------4-------|-----0-------------4-----|
-------5------------------|---------------------------|--3----------3-----------|
--0----------0------------|--2-----------2------2-----|-------------------------|


  Q    E  E  E  E  E  E     Q    E  E  E  S S E  E     Q    E  E  E  S S E  E   
-------------------------|--------------------------|--------------------------|
--0----0--2-----3-----2--|--------------------------|-----------------------0--|
-------------------------|--0-------0--0--L------0--|----------0--0--L---------|
-------------0-----0-----|-------0----------4-------|-------0----------4-------|
-------------------------|--------------------------|--------------------------|
--0----------------------|--5----------5------5-----|--2----------2------2-----|


  E  E  Q    E  E  E  E     Q    E  E  E  E  E  S S    Q    E  E  E  S S E  E   
-------------------------|--------------------------|--------------------------|
-------------------------|--0----0--2-----0---------|--------------------------|
--------0-------0-----0--|----------------------0-0-|----------0--0--L------0--|
-----0-------------4-----|-------------0-----0------|-------0----------4-------|
--3----------3-----------|--------------------------|--------------------------|
-------------------------|--0-----------------------|--5----------5------5-----|


  Q    E  E  E  S S E  E     E  E  Q    E  E  E  E     Q    E  E  E  E  E  E   
--------------------------|-------------------------|-------------------------|
-----------------------0--|-------------------------|--0----0--2-----3-----2--|
----------0--0--L---------|--------0-------0-----0--|-------------------------|
-------0----------4-------|-----0-------------4-----|-------------0-----0-----|
--------------------------|--3----------3-----------|-------------------------|
--2----------2------2-----|-------------------------|--0----------------------|


  E  E  E  E  E  S S E  E     E  E  E  E  E  S S E  E     Q    E  E  E  E  E  E   
-------------------0----0--|-------------------0----0--|-------------------------|
---------------------------|---------------------------|----------------------0--|
--------0-----0--L---------|--------0-----0--L---------|--0-------0--------0-----|
-----0-----0---------0-----|-----0-----0---------0-----|-------0--------4--------|
---------------------------|---------------------------|--3----------3-----------|
--5-----------5------------|--2-----------2------------|-------------------------|


                          [Outro]
                             ^                                   ^           
  E  E  E  E  E  E  E  E     Q    E  E  E  E  Q       E  E  Q    E  E  Q     
--------------------------|----------0--L----------|------------------------|
--2-----3--2--L--0--------|------------------------|------------------------|
--------------------0--0--|--0----------------0----|----------------0-------|
--2--2-----------0--------|-------0--------0-------|-----4--L----4-----0----|
--------------------------|------------------------|--3----------3----------|
--2--2-----------0--------|--2---------------------|------------------------|


  ^                                   ^             ^                      
  Q    E  E  E  E  Q       E  E  Q    E  E  Q       Q    E  E  E  E  Q     
----------0--L----------|------------------------|----------0--L----------|
------------------------|-----0--L----3--2-------|------------------------|
--0----------------0----|-------------------0----|--0----------------0----|
-------0--------0-------|-------------0----------|-------0--------0-------|
------------------------|------------------------|------------------------|
--0---------------------|--5----------5----------|--2---------------------|


             ^             ^                                            
  E  E  Q    E  E  Q       E  E  E  E  E  E  E  E     W                 
------------------------|-----------------------0--|--L----------------|
------------------------|-----------0--L-----0-----|-------------------|
----------------0-------|--0-----0--------0--------|-------------------|
-----4--L----4-----0----|-----4--------------------|-------------------|
--3----------3----------|-----------------3-----3--|--L----------------|
------------------------|--2-----------------------|-------------------|


  W                  
--L----------------||
-------------------||
-------------------||
-------------------||
--L----------------||
-------------------||


 [Alt. Pre-Chorus]
  E  E  E  S S E  E  E  E     Q    E  E  E  E  Q      
--------0--0-0-0--0-----0--|--2----4--2-----0--L----|
---------------------------|--2---------------------|
-----0---------0--0--------|------------------------|
---------------------------|------------------------|
--2------------2-----------|--2----------2----------|
---------------------------|------------------------|

 [Alt. Pre-Chorus 2]
  E  E  S S S S E  E  E  E     Q    E  E  E  E  Q     
--------0-0-L-0-0--0-----0--|--2----4--2--0--0--L----|
----------------------------|--2---------------------|
-----0----------0--0--------|----------------0--L----|
----------------------------|------------------------|
--2-------------2-----------|--2----------2----------|
----------------------------|------------------------|


Duration Legend
---------------
W - whole
H - half
Q - quarter
E - 8th
S - 16th
T - 32nd
X - 64th
. - note dotted
|-n-|  - n-tuplets


Tablature Legend
----------------
L - tied note
x - dead note
g - grace note
(n) - ghost note
> - accentuded note
NH - natural harmonic
AH - artificial harmonic
TH - tapped harmonic
SH - semi harmonic
PH - pitch harmonic
h - hammer on
p - pull off
b - bend
br - bendRelease
pb - preBend
pbr - preBendRelease
brb - bendReleaseBend
\n/ - tremolo bar dip
\n - tremolo bar dive
-/n - tremolo bar Release up
/n\ - tremolo bar inverted dip
/n - tremolo bar return
-\n - tremolo bar Release down
S - shift slide
s - legato slide
/ -  slide into from below or out of upwards
\ -  slide into from above or out of downwards
~ - vibrato
W - wide vibrato
tr - trill
TP - tremolo picking
T - tapping
S - slap
P - pop
< - fade in
^ - brush up
v - brush down
Login or Register to remove this ad.

4 comments on Overfly

Holy fk...this flood of

5

Holy fk...this flood of quality tabs...so beautiful...my fingers are so happy... T_T

Great work!

Re: Choogly

Thanks, glad you like the tab :)
The flood has dried up since those were all backlogged tabs I was waiting to have approved. This one actually has been done and posted in the Submissions section since mid-November and I was updating it in the Works in Progress section well before that lol. I'm happy it finally made it onto the main site, though :3

Perfect Tabs!

5

I love this tab it sounds so perfect! Thank you so much for making this <3

Thanks, glad you like it! I'm

Thanks, glad you like it! I'm eventually going to update the tab with more notes added into some sections! :3