Ads

Innocence (Sword Art Online) Guitar Tab

Submitted: Mar 10, 2020 by E (Last updated: Mar 21, 2020)

0
Download | No audio :(
Game: Sword Art Online
Composer(s): Aoi Eir
Style: Fingerstyle

AutoScroll: Slow | Medium | Fast
--0-----7--------------------------------------------------------------------------------------
-----4--------0--0--0--2--0--------------------0-----------------------------------------------
-----------------------------2--1--1--2--1--1--------------------1-----1--------------------1--
-----------2--------------------------------------1--4--2--1--2-----------4-----4--4--3--4-----
--------------------------------------------------------------------4--------2-----------------
-----------------------------------------------------------------------------------------------


-----0-----------------------------------------------------------------------------------------
--0-----4--0--------0-----------------------2--2--2--------------------------------------------
--------------2--1--------1--------------1--------------------------1--------------------------
-----------------------2-----4--2--1-----------------2--2--1--2--4--------1--2-----1--1--2-----
--------------------------------------4--------------------------------2--------2--------------
-----------------------------------------------------------------------------------------------


-----------------------------------------------------------------------------------------------
--------------------------------------------------------------------------0--------2--0--2--0--
-----------1--2--1--------------------1-----------------------------1--------1--2--------------
--2--1--2-----------4--2--2--1--2--4--------1--2--1--1--2--2--1--2-----4-----------------------
-----------------------------------------2-----------------------------------------------------
-----------------------------------------------------------------------------------------------


--------------0--------------------------------0-----2--2--0--2--0--2--0--2--0--4--5--4--2-----
--2--0--2--0-----4--0--2--0--2--0--2--0--2--0-----4--------------------------------------------
-----------------------------------------------------------------------------------------------
-----------------------------------------------------------------------------------------------
-----------------------------------------------------------------------------------------------
-----------------------------------------------------------------------------------------------


--------4--4-----------------------------------------------------------------------------------
--4--4-----------0--0--0--2--0--------------------0--------------------------------------------
--------------------------------2--1--1--2--1--1--------------------1-----1--------------------
--------------2--------------------------------------1--4--2--1--2-----------4-----4--4--3--4--
-----------------------------------------------------------------------4--------2--------------
-----------------------------------------------------------------------------------------------


-----------------------------------------------2--0-----0--------------------------------------
--------0--0--0--2--0--------------0--0--0-----------4-----------------------0-----------------
--1--------------------2--1--1--2-----------1--------------------------1--2-----2--1--1--------
-----2--------------------------------------------------------4--4--4--------------------4-----
-----------------------------------------------------------4-----------------------------------
-----------------------------------------------------------------------------------------------


-----------------------------------------------------------0-----------------------------------
--------------------------0-----0-----0--2--0--2--4--2--4-----4--2--------------------0--------
-----------------------1-----1-----1--------------------------------------------1--2-----2-----
-----4--4--4--2--1--2--------------------------------------------------4--4--4--------------1--
--2-----------------------------------------------------------------2--------------------------
-----------------------------------------------------------------------------------------------


-----------------------------------------------------------
--------------------------------------0--------------0--2--
--1--------------------------1-----1-----2--1-----1--------
-----4-----4--4--4--2--1--2--------------------4-----------
--------2-----------------------4--------------------------
-----------------------------------------------------------
Login or Register to remove this ad.