Ads

Innocence (Sword Art Online) Guitar Tab

Submitted: Oct 15, 2012 by komarEX

4
Average: 4 (2 votes)
Download | Listen
Game: Sword Art Online
Composer(s): Aoi Eir
Style: Transcription

This song is also called Opening Theme

Click here for a video example.

AutoScroll: Slow | Medium | Fast
Song: Innocence
Artist: Aoi Eir [藍井エイル]
Anime: Sword Art Online [ソードアート・オンライン]
Type: OP - Opening (TV size)
TAB by: komarEX (http://www.youtube.com/user/komarEXcam)

Copyright © 2012 by komarEX, All rights reserved


e||---------------------------|
B||---------------------------|
G||--------------4-------4--6-|
D||-----7------4------7--4--6-|
A||---7------2--------7--2--4-|
E||-5-----------------5-------|


e||-4--6--2--7----4--6-----------|
B||-4--6--2--7----4--6-----------|
G||-6--8--4--9----6--8--4/6/9/11-|
D||-6--8--4--9----6--8--4/6/9/11-|
A||-4--6--2--7----4--6--2/4/7/-9-|
E||------------------------------|


e||-------5--2--4-|
B||-------5--2--4-|
G||-------5--4--6-|
D||-7-7-7-7--4--6-|
A||-7-7-7-7--2--4-|
E||-5-5-5-5-------|


e||-----5--2--4-|
B||-----5--2--4-|
G||-----5--4--6-|
D||-----7--4--6-|
A||-9\5-7--2--4-|
E||-9\5-5-------|

    P.M.------------------------------------------------------------------------------------------|
e||----------------------------------------------------------------------------------------------------|----------|
B||----------------------------------------------------------------------------------------------------|----------|
G||--------------------------------------------------------------------------------------------------8-|-6-6--8-8-|
D||------------------------------------------------------------------------------4-4-4-4-4--6-6-6-6--8-|-6-6--8-8-|
A||-4-4-4-4-4-4-4-4-4-4-4-4-4x-4x--6-6-6-6-6-6-6-6-6-6-6-6-6x-6x--7-7-7-7-7-7-7--2-2-2-2-2--4-4-4-4--6-|-4-4--6-6-|
E||-2-2-2-2-2-2-2-2-2-2-2-2-2x-2x--4-4-4-4-4-4-4-4-4-4-4-4-4x-4x--5-5-5-5-5-5-5------------------------|----------|


e||-4--6--2--7-| x3
B||-4--6--2--7-|
G||-6--8--4--9-|
D||-6--8--4--9-|
A||-4--6--2--7-|
E||------------|


e||-5--2-|---------------------------------|-4--2-|
B||-5--2-|-------------------------2-2-0-0-|-4--2-|
G||-5--4-|-----------------0-1-2-3---------|-6--4-|
D||-7--4-|---------0-1-2-3-----------------|-6--4-|
A||-7--2-|-0-1-2-3-------------------------|-4--2-|
E||-5----|---------------------------------|------|


e||-5--2--3----|
B||-5--2--3----|
G||-5--4--5--4-|
D||-7--4--5--4-|
A||-7--2--3--2-|
E||-5----------|


Copyright © 2012 by komarEX, All rights reserved
Login or Register to remove this ad.