Login or Register to remove this ad.

Everyday Life (Sword Art Online) Guitar Tab

Submitted: Feb 08, 2014 by scarecrowlol (Last updated: Feb 08, 2014)

4.833335
Average: 4.8 (24 votes)
Download | Listen
Game: Sword Art Online
Composer(s): Aoi Eir
Style: Arrangement, Fingerstyle

AutoScroll: Slow | Medium | Fast
Title: Everyday Life
SubTitle: Sword Art Online
Artist: Yuki Kajiura
Tabber: Mitch Jackson
Tempo = 60
T/S = 3/4

--------
LEGEND
--------
h = Hammer On
p = Pull Off
s = Slide
L = Let Ring
~ = Vibrato
X = Dead Note



     E     E     E     S  S  E.       S       E     E     E     S  S  E.       S       E     E     E     S  S  E.       S     
E |--------------0-----------0-------------|--------------------------3-------------|--------------0-----------0-------------|
B |--------------2-----------2-------------|--------------------------0-------------|--------------2-----------2-------------|
G |--------2--------------2----------------|--------------2-----------2-------------|--------2--------------2----------------|
D |--0-----------------0--------------0----|--------0--------------0-----------x----|--0-----------------0--------------0----|
A |----------------------------------------|----------------------------------------|----------------------------------------|
E |----------------------------------------|--3-----------------3-------------------|----------------------------------------|

                                         
                       ^
     E     E     E     Q.                     E     E     E     S  S  E     S  S       E     E     E     S  S  S  S  S  S     
  |--------------------3-------------------|--------------0-----------0--------0----|--2-----------------------3--------7----|
  |--------------------0-------------------|--3-----------2-----------2-----3-------|--------------0-----------------3-------|
  |--------------2-------------------------|--------2--------------2----------------|--------------2--------------2----------|
  |--------0-----------0-------------------|--0-----------------0-------------------|--------0--------------0----------------|
  |----------------------------------------|----------------------------------------|----------------------------------------|
  |--3-----------------3-------------------|----------------------------------------|--3-----------------3-------------------|

                                         

     E     E     E     S  S  E     S  S       E     E     E     S  S  E     S  S       E     E     E     S  S  E     S  S     
  |--5-----------0-----------0-----3p-2----|--0-----------------3-------------------|--------------0-----------0--------0----|
  |--------------2-----------2-------------|--------------0-----------0-----3p-2----|--3-----------2-----------2-----3-------|
  |--------2--------------2----------------|--------------2--------2----------------|--------2--------------2----------------|
  |--0-----------------0-------------------|--------0-------------------------------|--0-----------------0-------------------|
  |----------------------------------------|----------------------------------------|----------------------------------------|
  |----------------------------------------|--3-----------------3-------------------|----------------------------------------|

                                         
     |--3--|                                     |--3--|                                                     ^
     E     S  E     E     S  S  S  S  S  S       E     S  E     E     S  S  E.      S       E     S  S  S  S  E     S  S  S  S     
  |-----------------------------3-------------|-----------------0-----------0------------|-----------------------------3----------|
  |--2p----0--------0-------------------------|-----------------2-----------2------------|--------3p-2-------(0)------------------|
  |-----------2-----2-----------------2p-0----|--2h----4p-2--------------2---------------|--------------2p-0--2--------------2----|
  |-----------0--------------0-----0----------|--0--------------------0-------------0----|--------0-----------0-----0-----0-------|
  |-------------------------------------------|------------------------------------------|----------------------------------------|
  |--3--------------------3-------------------|------------------------------------------|--3-----------------3-------------------|

                                 
           ^                                                    ^                            ^
     E     S  S  S  S  S  S  S  S  S  S       S  S  S  S  S  S  E     S  S  S  S       S  S  S  S  S  S  S  S  S  S  S  S     
  |--------5-----0-----0-----0--5-----0----|--2-----------------5--------------7----|--5-----0-----------0-----0--5--3p-2----|
  |--3-----2--------3--------2-----3-------|--------0-----0-----3-----------3-------|--------2--2-----2--------2-------------|
  |--------2--2-----------2----------------|--------2--------2--2--------2----------|-----2--2-----2--------2----------------|
  |--0-----------------0-------------------|-----0-----0--------------0-------------|--0-----------------0-------------------|
  |----------------------------------------|----------------------------------------|----------------------------------------|
  |----------------------------------------|--3-----------------3-------------------|----------------------------------------|

                                        
                                                    ^
     S  S  S  S  S  S  S  S  S  S  S  S       S  S  S  S  S  S  S  S  S  S  S  S       S  S  S  S  S  S  S  S  S  S  S  S     
  |--0-----------------3-------------------|--------0-----0-----0-----5-------------|--------------------5-----3--------0----|
  |--------3--0-----0-----0--3-----3p-2----|--3-----2--------2--------------2p-0----|--------0--3--0--3--------------3-------|
  |--------2--------2-----------2----------|-----2--2--2-----------2-----2----------|--2-----------2--------2--------2-------|
  |-----0--------0-------------------------|--0-----------------0-------------------|-----0-----------------------0----------|
  |----------------------------------------|----------------------------------------|----------------------------------------|
  |--3-----------------3-------------------|----------------------------------------|--3-----------------3-------------------|

                                        
                   ^                                              ^                      ^                  ^     
     S  T T T T S  S  S  S  S  S  S  S  S       E     E     E     E     E     E          S  Q           T T Q           S  S     
  |--3----2p0------0-----0-----0--5----------|--------------------3-------------------|---------------------5L----------L-------|
  |-----------3----2-----------------2-------|--------0-----3-----0-----0-----2-------|--2h-3-----------2p0---------------------|
  |-----2----------2--------2-----------2----|--------0-----2-----2-------------------|--4------------------2L----------L--0----|
  |--0----------0-----0----------------------|--------0-------------------------------|--4------------------2L----------L-------|
  |------------------------------------------|----------------------------------------|--2------------------0L----------L-------|
  |------------------------------------------|--3-----------------3-------------------|-----------------------------------------|

                      
                       ^                      ^                  ^                           ^                 ^ 
     T S.  E     E     E     E     E          Q           S  T T Q          T S.       T S.  Q           T S.  Q              
  |--------------5-----2-------------------|--7L----------L------0------------------|--------5-------------------------------|
  |--------3-----3-----3-----0-------------|-----------------2h3-0----------2s3-----|--2s3---2-----------0h2---0-------------|
  |--0h2---2-----------2-----------6-------|--7L----------L------1------------------|--------2-----------------2-------------|
  |--0-----------------0-------------------|--9L----------L------2------------------|--------------------------2-------------|
  |----------------------------------------|--9L----------L-------------------------|--0-----0-------------------------------|
  |----------------------------------------|--7L----------L------0------------------|--------------------3-----3-------------|

                                       
                       ^
     T S.  E     E     E     E     E          S  E.       H                            E     S  S  S  S  S  S  S  S  S  S     
  |--------------0-----5-------------------|----------------------------------------|--------------0--5--------0-------------|
  |--------------2-----2-------------------|----------------------------------------|-----------2--2-----------2-----3p-2----|
  |--2s4---2-----2-----2-----------2-------|--4s-6L~------L-------------------------|--------2--------------2-----2----------|
  |--------2-----------------2-------------|----------------------------------------|--0-----------------0-------------------|
  |--0-----0-------------------------------|--0-------------------------------------|----------------------------------------|
  |----------------------------------------|----------------------------------------|----------------------------------------|

                                         

     E     E     S  S  S  S  S  E     S       S  S  S  S  S  S  S  S  S  S  S  S       S  T T E     E     S  S  S  S  S  S     
  |--------5-----3-------------------------|-----9--------9-----9-----0-------------|--3--2p0----------------------3----------|
  |--3--------------------------0----------|--------7--------------------7--3s-5----|---------3-----0-----0-----------3p-2----|
  |--------------2-----------2--------2----|-----------9-----7--------6-------------|---------------2-----------2-------------|
  |--------0--------0-----0----------------|--0--------------------7----------------|---------0--------------0----------------|
  |----------------------------------------|----------------------------------------|-----------------------------------------|
  |--3-----------------3-------------------|----------------------------------------|--3------------------3-------------------|

                                         
                                                                 ^
     T T E     S  S  S  S  S  S  S  S  S       E     S  S  S  S  S  S  S  S  S  S       S  S  S  S  S  S  S  S  S  S  S  S     
  |------------5--0-----5--------5-----5----|--5-------------------------------------|--5-----------5-----------5--0----------|
  |--3p0----------2-----------5-------------|-----------3-----3--0--------3-----0----|-----2-----2-----2-----2-----------0----|
  |------2-----------2-----2--------2-------|--------------2-----2-----2-----2-------|--------2-----------2-----------2-------|
  |--0------------------0-------------------|--------0--------------0----------------|--0-----------------0-------------------|
  |-----------------------------------------|----------------------------------------|----------------------------------------|
  |-----------------------------------------|--3-----------------3-------------------|----------------------------------------|

                                           |--RALL--> 40BPM
                                                    ^                                
     E     S  S  S  S  S  S  S  S  S  S       S  S  H                       E          H.                                      
  |--------------------------3-------------|--0-----2L----------------------L-------|--L-------------------------------------||
  |--------3--------------0--------0-------|-----3--3L----------------------L-------|--L-------------------------------------||
  |-----------0--2-----2--------------2----|--------2L----------------------L-------|--L-------------------------------------||
  |-----------------0-----------0----------|--0-----0L----------------------L-------|--L-------------------------------------||
  |----------------------------------------|----------------------------------------|----------------------------------------||
  |--3-----------------3-------------------|----------------------------------------|----------------------------------------||

        
Login or Register to remove this ad.

9 comments on Everyday Life

YES!

5

You win the internets for the month.

Its really a wonderful

Its really a wonderful tab,
scarecrowlol tabs always play different from others.
There's something strange and beautiful in your work.

Wonderful tab! Shouldn't Yuki

5

Wonderful tab!
Shouldn't Yuki Kajiura be listed as a composer for the series on the site by the way?

I just tried to add Kajiura,

I just tried to add Kajiura, but the site won't let me. Must be a problem leftover from the hacking.

It told me it added it

It told me it added it successfully, but it doesn't show up on tabs T_T

Poor Yuki o(╥﹏╥)o

Poor Yuki o(╥﹏╥)o

Awesome tab scarecrow, going

5

Awesome tab scarecrow, going to be playing this everyday for the foreseeable future.

Thank you very much for the

Thank you very much for the positive comments! :) Truth be told i wasn't 100% sure if i had managed to capture the essence of this piece, but playing difficulty had to be accounted for.

Thanks very much for this tab

5

It fits in perfectly with the original song, great work!