Ads

Rainbow Cruise (Super Smash Bros. Melee) Guitar Tab

Submitted: May 10, 2009 by hslesperance

5
Average: 5 (2 votes)
Download | Listen
Game: Super Smash Bros. Melee
Composer(s): Hirokazu Ando, Shogo Sakai, Tadashi Ikegami, Takuto Kitsuta
Style: Transcription
Series: Super Smash Bros.

AutoScroll: Slow | Medium | Fast
Rainbow Cruise
Super Smash Bros. Melee
Composed by Koji Kondo
Tabbed by hslesperance
11/2/08

Standard Tuning

e---5-----5------0-------------------------------2--0-----------
B-------------------2--0----------0--------3-2-3------3--0------
G------2-----2------------3--2-------2--------------------------
D---------------------------------------0-----------------------
A---------------------------------------------------------------
E---------------------------------------------------------------

e---0-------------------------------/5-------------/5-----------
B-------3--0--0---0-3--2-0--------------------------------------
G---------------3----------2--------------2--------------2------
D---------------------------------------------------------------
A---------------------------------------------------------------
E---------------------------------------------------------------

e---/5----0----------------------7--5--8-------------------12---
B--------------------------7----------------5-7--5----12--------
G-----------------------------------------7--------7------------
D-----------------------------------------------------9---------
A---------------------------------------------------------------
E---------------------------------------------------------------

e---10-----------------------------/17----------/17--------12---
B---------12----------------------------------------------------
G----------------------------14-----------14-----------14-------
D-------------9-11-12--11-10------------------------------------
A----------------------------12---------------------------------
E---------------------------------------------------------------

e--------------------------------------7--5-----------2--0------
B---15--14--12--10--11--------------------------3-2-3------3----
G---------------------------------7----------5----------------4-
D---------------------------------------------------------------
A---------------------------------------------------------------
E---------------------------------------------------------------

e---0-------------------------------5----------5----------5-----
B------3-----0---0-3--2-0---------------------------------------
G---------4----3-----------2-----------2-1-2------2-1-2---------
D---------------------------------------------------------------
A---------------------------------------------------------------
E---------------------------------------------------------------

e---0--------------7--5--8------------------12--10--------------
B------------3------------------7-------12------------12--------
G---------------------------6-7----9-7--------------------------
D---------------------------------------9-----------------------
A---------------------------------------------------------------
E---------------------------------------------------------------

e---------------------------5-----------------------------------
B---0-2-3--2-0------------------------3-------------------------
G---------------2----------------2------------------------------
D---------------------------------------------------------------
A---------------------------------------------------------------
E---------------------------------------------------------------

e---2----1----2----------------0-2----1----3--2--------0--------
B------------------------0-2-3------------------------------4---
G----------------------2----------------------------------------
D---------------------------------------------------------------
A---------------------------------------------------------------
E---------------------------------------------------------------

e---0----------------0---------3--2--------5----5----5----------
B------------0-2-3-4--------------------------------------------
G----------2--------------2-------------------------------------
D---------------------------------------------------------------
A---------------------------------------------------------------
E---------------------------------------------------------------

e---5--7---5-------------------5----------------3-2-------------
B------------8----8----8----8------8-7----0--3---------2--3-----
G---------------------------------------------------------------
D---------------------------------------------------------------
A---------------------------------------------------------------
E---------------------------------------------------------------

/ - slide up
Login or Register to remove this ad.