Ads

Yoshi's Stage (Super Smash Bros.) Guitar Tab

Submitted: Mar 22, 2011 by .kkrieger (Last updated: Mar 22, 2011)

5
Average: 5 (8 votes)
Download | Listen
Game: Super Smash Bros.
Composer(s): Hirokazu Ando
Style: Arrangement, Fingerstyle, Natural harmonics, Percussion
Series: Super Smash Bros.

This song is also called Yoshi's Story

Click here for a video example.

AutoScroll: Slow | Medium | Fast
Name of song: Yoshi's Stage theme/ Yoshi's Story theme
Name of game: Super Smash Bros.
Composer of song: Koji Kondo, Hirokazu Ando
Name of tabber: .kkrieger/kkraid
Date tab was made: 03.22.2011



     Q    Q    E  E  E  E     E  E  E  S S  E  E  Q     
E||------------------------|---------------------------|
B||-------2-------0-----2--|--L--2-------------0-------|
G||-------2-------0-----2--|--L--2-------------0-------|
D||-------2-------0-----2--|--L--2-------------0-------|
A||--0---------------x--0--|--L-----x-------------x----|
E||-------0----3-----------|-----------0-0h-3----------|


  E  E  E  E   E  E  E  E     E  E  E  E  Q     Q       
---------------------------|-----0---------------------|
-----2------------0-----2--|--L--2-----4-------(4)/----|
-----2------------0-----2--|--L--2-----4-------(4)/----|
-----2------------0-----2--|--L--------7-------(7)/----|
--0-----x------------x--0--|--L-----x-----0-----x------|
-----------0h--3-----------|---------------------------|


                                                           ^     v    
    E  E    E   E   E  E    E   E     E  E  E  E   E  E    E     E    
|------------------12--------------|-----9---------------------------|
|---------(10)------------(10)-----|---------------------(10)--(10)--|
|*--9--9----9---9-----------9---9--|--L--------9--11------(9)---(9)--|
|*--------(11)------------(11)-----|---------------------(11)--(11)--|
|---0-------x----------0----x------|--0-----x---------0----x---------|
|----------------------------------|---------------------------------|


  Q    E  E   E  E  E  E     E  E  E  S S  E  E  Q       
--------------------------|----------------------------||
-------2---------0-----2--|--L--2-------------0--------||
-------2---------0-----2--|--L--2-------------0-------*||
-------2---------0-----2--|--L--2-------------0-------*||
--0----x------------x--0--|--L-----x-------------x-----||
----------0h--3-----------|-----------0-0h-3-----------||


   (x) = hit guitar body with palm                       
   Q                               Q      E    E  E  E   
---0-------------------------------0-----------0--------|
--10------------------------------10------8---10--------|
---9-------------------------------9------7----9--------|
--11------------------------------11------9---11--------|
--(x)-----------------------------(x)----(x)------x--0--|
--------------------------------------------------------|


   E   E   E    E   Q      E   E     Q     E   Q    E  E  E   
---0------------0-----------------|--------------------------|
--10---8-------10-----------------|--7-----L-----------------|
---9---7--------9-----------------|-------(5)----------------|
--11---9-------11--------------7--|--------7---9----------7--|
--(x)-----(x)------(x)----(x)-----|--5-----x--------5--x-----|
----------------------------------|--------------------------|


  ^                                                   
  Q     E   Q    E  Q       Q     E   E  E  E  E  E   
-------------------------|-------(4)-----------------|
--7-----L----------------|-------(5)-----------------|
--5----(5)---------------|--6-----6------4--6--4--2--|
--------7---9------------|---------------------------|
--5-----x--------5--x----|--4-----x---4--------x-----|
-------------------------|---------------------------|


                                Here, (4) = just grab 4                       
                                                         NH            NH     
  E  E   E   E  E  E  E  E      Q                        E  E  E  E    E  E   
--------(2)-----------------|--------------------------<>7-----------<>7-----|
--------(2)-----------------|--------------------------<>7-----------<>7-----|
--L-----(2)-----1--2--1-----|--------------------------<>7-----------<>7-----|
-----4-------------------4--|--(4)-------------------------------------------|
---------x------------x-----|---5------------------------x--5--x--5----x--5--|
--2----------0--------------|------------------------------------------------|


   mute 3rd string with the index grabbing (6)                  
   Q                                          E  E  E  E  Q     
----------------------------------------------0-----------0----|
----------------------------------------------0-----------0----|
---------------------------------------------------------------|
--(6)----------------------------------------------------------|
---7------------------------------------------x--7--x--7--x----|
---------------------------------------------------------------|


                                                           ^     v    
    E  E    E   E   E  E    E   E     E  E  E  E   E  E    E     E    
|------------------12--------------|-----9---------------------------|
|---------(10)------------(10)-----|---------------------(10)--(10)--|
|*--9--9----9---9-----------9---9--|--L--------9--11------(9)---(9)--|
|*--------(11)------------(11)-----|---------------------(11)--(11)--|
|---0-------x----------0----x------|--0-----x---------0----x---------|
|----------------------------------|---------------------------------|


  Q    E  E   E  E  E  E     E  E  E  S S  E  E  Q       
--------------------------|----------------------------||
-------2---------0-----2--|--L--2-------------0--------||
-------2---------0-----2--|--L--2-------------0-------*||
-------2---------0-----2--|--L--2-------------0-------*||
--0----x------------x--0--|--L-----x-------------x-----||
----------0h--3-----------|-----------0-0h-3-----------||


   (x) = hit guitar body with palm                       
   Q                               Q      E    E  E  E   
---0-------------------------------0-----------0--------|
--10------------------------------10------8---10--------|
---9-------------------------------9------7----9--------|
--11------------------------------11------9---11--------|
--(x)-----------------------------(x)----(x)------x--0--|
--------------------------------------------------------|


           hit guitar body with fingers, last one normal slap                   
   E   E   E                             E   E   S S E  E  
---0-------------------------------------0-----------------
--10---8--------------------------------10-----------------
---9---7---------------------------------9-----------------
--11---9--------------------------------11-----------------
--(x)-----(x)-------------------------------(x)--x-x-x--x--
-----------------------------------------------------------


  Q    E  E  E   E    Q        Q    E  E  E  E  E  E   
--0----------2p--0h---2-----|--0-------------------L--|
--2----------0-------(0)----|--2-------------------L--|
--2------------------(2)----|--2-------------------L--|
----------------------------|-------------------------|
--0----x--0-----------x-----|--0----x--0--x-----------|
----------------------------|----------------0--3--4--|


  barree 1st-4th strings                                                  
  Q                      E  E  E  E   Q        Q    E  E  E  S S  E   E   
--------------------------------------------|----------------------------|
--2----------------------------3--2---3-----|--2----------------------L--|
--2----------------------------2-----(2)----|--2----------------------L--|
--2----------------------------2-----(2)----|--2----------------------L--|
--0----------------------x--0---------x-----|--0----x-----x--------------|
--------------------------------------------|----------0-----0-0h-3p--0--|


                                          barree 1st-3rd string             
  Q    E  E  E   E    Q        Q    E  E  E                     E    Q      
--0----------2p--0h---2-----|--0-------------------------------------------|
--2----------0-------(0)----|--0----------3p--------------------2h---3-----|
--2------------------(2)----|-------------2-------------------------(2)----|
----------------------------|-------------0-------------------------(0)----|
--0----x--0-----------x-----|--4----x--0-----------------------------x-----|
----------------------------|----------------------------------------------|


  Q    E  E  E  E  Q       Q    E  E   E  E  E  E   
------------------------|--------------------------|
--2----------0-----0----|-----------------0-----2--|
--2-------------2-------|--2--------------0-----2--|
--2-------------2-------|--2--------------0-----2--|
------------------------|--0----x------------x--0--|
--0----x--0-------------|----------0h--3-----------|


  E  E  E  S S  E   E  E   E     E  E  E  E   E  E  E  E   
------------------------------|---------------------------|
-----2------------------------|-----2------------0-----2--|
-----2------------------------|-----2------------0-----2--|
-----2------------------------|-----2------------0-----2--|
------------------------------|--0-----x------------x--0--|
--------x--0-0h-3p--0--3h--4--|-----------0h--3-----------|


                                  ^                                  
  E  E  E  H        E     E  Q    H         E     W                  
-----0-----------------|----------9~--------L--|--L----------------||
-----2-----4--------L--|--L--5----9~--------L--|--L----------------||
-----2-----4--------L--|--L-------9~--------L--|--L----------------||
-----------7--------L--|--L--------------------|--L----------------||
--------x--------------|--L-------0---------L--|--L----------------||
-----------------------|-----------------------|-------------------||




Duration Legend
---------------
W - whole
H - half
Q - quarter
E - 8th
S - 16th


Tablature Legend
----------------
L - tied note
x - dead note
(n) - ghost note
NH - natural harmonic
h - hammer on
p - pull off
/ -  slide into from below or out of upwards
\ -  slide into from above or out of downwards
~ - vibrato
^ - brush up
v - brush down
Login or Register to remove this ad.

5 comments on Yoshi's Stage

Pretty amazing!

5

Pretty amazing!

Well fuck. Thanks man.

5

Well fuck.

Thanks man.

How do i

How do i do the x in


     Q    Q    E  E  E  E     E  E  E  S S  E  E  Q     
E||------------------------|---------------------------|
B||-------2-------0-----2--|--L--2-------------0-------|
G||-------2-------0-----2--|--L--2-------------0-------|
D||-------2-------0-----2--|--L--2-------------0-------|
A||--0---------------x--0--|--L-----x-------------x----|
E||-------0----3-----------|-----------0-0h-3----------|

Use your picking thumb to

Use your picking thumb to slap inbetween the 6th and 5th strings. Should emulate a snare sound.

Practice slowly, you know.

Thanks

Thanks
I'll practice slowly
You are surreal thanxs