Ads

Lifelight / Main Theme (Super Smash Bros Ultimate) Guitar Tab

Submitted: Feb 09, 2020 by Emi (Last updated: Feb 10, 2020)

4.333335
Average: 4.3 (3 votes)
Download | No audio :(
Game: Super Smash Bros Ultimate
Style: Fingerstyle

Click here for a video example.

AutoScroll: Slow | Medium | Fast
Title: Lifelight
Game : Super Smash Bros. Ultimate
Artist: Hideki Sakamoto
Arranged for Guitar by Emilien Delcour
Tempo = 110


Legend
L - tied note
^ - brush down

                                                        
E |----------------------------------------------------|
B |--------------------------------------------3-------|
G |--------------------0-----------------0-------------|
D |--2--------4--------------------2-------------------|
A |--------------------3-------------------------------|
E |--3-------------------------------------------------|

  ^                                                  
----------------------------------------------------|
--2-----------------2-------------------------------|
--0--------4--------------2-------------------------|
--2-----------------------0-------------------------|
--0-----------------------2-------------------------|
----------------------------------------------------|

                                                     
----------------------------------------------------|
--1--------0--------------------------------0-------|
--------------------2-----------------2-------------|
--2--------0--------4-----------5-------------------|
--------------------5-------------------------------|
----------------------------------------------------|

                                                     
----------------------------------------------------|
----------------------------------------------------|
--2-----------------2-------------------------------|
-----------5--------------4-------------------------|
--------------------------5-------------------------|
----------------------------------------------------|

                                                     
----------------------------------------------------|
--------------------------------------------3-------|
--------------------0-----------------0-------------|
--2--------4--------------------2-------------------|
--------------------3-------------------------------|
--3-------------------------------------------------|

  ^                       ^                          
--------------------------0-------------------------|
--2-----------------2-----1-------------------------|
--0--------4--------------0-------------------------|
--2-----------------------2-------------------------|
--0-----------------------3-------------------------|
----------------------------------------------------|

                                                     
----------------------------------------------------|
--1--------0--------------------------------0-------|
--------------------2-----------------2-------------|
--2--------0--------4-----------5-------------------|
--------------------5-------------------------------|
----------------------------------------------------|

                                                       ^     
----------------------------------------------------|--0----|
--------------------------------------------3-------|--0----|
--2-----------------2--------------2----------------|--2----|
-----------5--------------4-------------------------|--2----|
----------------------------------------------------|-------|
----------------------------------------------------|-------|

                                                     
----------------------------------------------------|
----------------------------------------------------|
--0-----------2-------------------------------------|
--------------------------4-----------------2--4----|
--------------------0-----------------3-------------|
--------0-------------------------------------------|

                                                     
----------------------------------------------------|
----------------------------------------------------|
--0--------2--------4-----2-------------------------|
--------------------------0-------------------------|
--------------------------0-------------------------|
----------------------------------------------------|

                               ^              
----------------------------|----------------|
----------------------------|----------------|
--0-----2-------------------|----------------|
--------------4-----2--0----|--2-----0-------|
-----------0----------------|--3-----0-------|
-----0----------------------|--0--3-----2----|

                                                     
----------------------------------------------------|
----------------------------------------------------|
--0-----------2-------------------------------------|
--------------------------4-----------------2--4----|
--------------------0-----------------3-------------|
--------0-------------------------------------------|

                                                     
----------------------------------------------------|
----------------------------------------------------|
--0--------2--------4-----2-------------------------|
--------------------------2--------4--------0-------|
--------------------------0-------------------------|
----------------------------------------------------|

                                                                      
----------------------------------------------------|----------------|
----------------------------------------------------|-----3--0-------|
--------------------------------------------0-------|--2-----4-------|
--2-----------------------2--------4----------------|--4-------------|
--2-----------------------3-------------------------|--5-------------|
----------------------------------------------------|----------------|

  ^                                                  
--0--------0--------0-----0-------------------------|
--1-------------------------------------------------|
--2-----------------------0-------------------------|
--2-------------------------------------------------|
--0-------------------------------------------------|
----------------------------------------------------|

  ^                                                  
----------------------------------------------------|
--3-----------------3-------------------------------|
--0--------5--------------2-------------------------|
--5-----------------4-----0-------------------------|
--5-----------------------0-------------------------|
----------------------------------------------------|

  ^                                                  
--2--------2--------2-----2-------------------------|
--3--------------------------------3----------------|
--4-----------------------2-----------------4-------|
--4-------------------------------------------------|
--2-------------------------------------------------|
----------------------------------------------------|

                                                                
----------------------------|-----------0--0-------------------|
----------------------------|--------------------0-------------|
--2-----0--------0-----0----|-----------------------3----------|
--2-----0-----------4-------|--2-----------2--------4----------|
--0-------------------------|--3--------------------4----------|
--------3-------------------|----------------------------------|

                 ^                                        
--------3--2--0--0----------|--0-----0-------------------|
--2--------------1----------|-----4-----7L----------7----|
-----------1-----4----------|-----3-----7L----------7----|
--2--------------2----------|-----4-----7L----------7----|
----------------------------|-----------5L----------5----|
----------------------------|----------------------------|

                                                     
--------------------------------------------10------|
-----------7--------8-----------------8-------------|
--9-----------------9-----------9-------------------|
--9-----------------10------------------------------|
----------------------------------------------------|
--------------------8-------------------------------|

                                                     
--9-----------------9-------------------------------|
--10-------12-------------10------------------------|
--9-----------------------11------------------------|
----------------------------------------------------|
--------------------------0-------------------------|
--9-------------------------------------------------|

                                                     
----------------------------------------------------|
--13-------12-------10----------------10----12------|
--9-----------------------------12------------------|
--------------------0-------------------------------|
----------------------------------------------------|
--0-------------------------------------------------|

                                                     
----------------------------------------------------|
--10-------8--------10----7-------------------------|
--11-------9--------7-----7-------------------------|
--------------------------7-------------------------|
--------------------------0-------------------------|
----------------------------------------------------|

                                                     
--------------------------------------------10------|
-----------7--------8-----------------8-------------|
--9-----------------9-----------9-------------------|
--9-----------------10------------------------------|
----------------------------------------------------|
--------------------8-------------------------------|

                                                     
--9-----------------9-----12------------------------|
--10-------12-------------12------------------------|
--9-----------------------12------------------------|
----------------------------------------------------|
----------------------------------------------------|
--9-----------------------0-------------------------|

                                                     
----------------------------------------------------|
--13-------12-------10----------------10----12------|
--0-----------------------------12------------------|
--------------------0-------------------------------|
----------------------------------------------------|
----------------------------------------------------|

                          ^                            ^
--------------------------------------------10------|--12L--|--12---||
--10-------8--------10----7--------10---------------|--9L---|--9----||
--11----------------------7-------------------------|--9L---|--9----||
--------------------------7-------------------------|-------|-------||
--0-----------------------9-------------------------|-------|--11---||
----------------------------------------------------|--0L---|--0----||

Login or Register to remove this ad.