Login or Register to remove this ad.

Menu 1 (Super Smash Bros. Melee) Guitar Tab

Submitted: Nov 08, 2017 by bubblingbeebles

5
Average: 5 (3 votes)
Download | Listen
Game: Super Smash Bros. Melee
Composer(s): Hirokazu Ando, Shogo Sakai, Tadashi Ikegami, Takuto Kitsuta
Style: Arrangement, Fingerstyle
Series: Super Smash Bros.

AutoScroll: Slow | Medium | Fast
Super Smash Bros Melee - Menu 1
Composers: Hirokazu Ando, Shogo Sakai, Tadashi Ikegami
Arranged by bubblingbeebles

Capo on the 2nd fret

-4/4


     E  E  E  E  E  E  E  E     E  E  E  E  E  E  E  E     E  E  E  E  E  E  E  E   
E||--------0L----------0--3--|--2-----------------------|-----------------------0--|
B||--------------------------|-----3-------------------0|--1L----------------1-----|
G||*-2----2---2-----2--2-----|--------2--------------2--|-----------------2--------|
D||*----2-----2--------2-----|-----4-----4-----4--------|--3--------3--------3-----|
A||--0--------0--------0-----|-----0-----0-----0--------|--3--------3--------3-----|
E||--------------------------|--------------------------|--1--------1--------1-----|


  E  E  E  E  E  E  E  E     E  E  E  E  E  E  E  E     E  E  E  E  E  E  E  E   
--------------------------|--------0-----------0--3--|--2-----------------------|
--3-----------------------|--------------------------|-----3--------------------|
--------------------------|--2----2---2-----2--2-----|--------2--------------2-5|
----5------5-----5--------|-----2-----2--------2-----|-----4-----4-----4--------|
----5------5-----5--------|--0--------0--------0-----|-----0-----0-----0--------|
----3------3-----3-----0--|--------------------------|--------------------------|


  1st ending                                            2nd ending
  E  E  E  E  E  E  E  E     E  E  E  E  E  E  E  E     E  E  E  E  E  E  E  E       E  E  E  E  E  E  E  E   
--------------------------|--0-----------------------||---------------------------|--5-----------------------|
--------------------------|--------------------------||-------------6-------------|--------------5-----------|
—-5--------------5--------|-------------------------*||-5--------5-7--------------|-----------5-7------------|
--------0-----------6-----|-------------------------*||---------------------------|--------------------------|
--------------8-----------|-----3-----5-----3--------||---------------------------|--------------------------|
--6--------6--------7-----|-----------------------0--||-6--------6----------------|--6-----------------0-----|


  E  E  E  E  E  E  E  E     E  E  E  E  E  E  E  E     E  E  E  E  E  E  E  E   
--------1--------0--------|--------------------------|--------------1--0-----1--|
--1---1-------------3--1--|--1-----0-----------------|-----------1--1--0-----1--|
-----2-----2--------------|-----------2--------0-----|--2--------2--------------|
--------3-----------------|--------0--------0-----0--|--------3-----------------|
--------------------------|-----2--------------0-----|-----3--------------------|
--1-----------------1-----|--3-----------------------|--1-----------1--0-----1--|


  E  E  E  E  E  E  E  E     E  E  E  E  E  E  E  E     E  E  E  E  E  E  E  E   
--3L----------------------|--------4--------3--------|--------------------------|
--3L----------------------|--4-----------------6--4--|--------------------------|
--------0--4-----0-----0--|-----5-----5--------------|--8-----7L----------------|
-----0--------------0-----|--------6-----------------|-----0-----8-----------8--|
--------------------------|--------------------------|-----------------------8--|
--3-----------------------|--4-----------------4-----|--6-----------------------|


  E  E  E  E  E  E  E  E     E  E  E  E  E  E  E  E     E  E  E  E  E  E  E  E   
--------------------------|-----------6--------------|--------1--------0--------|
--4-----------4---6----8--|--6-----------------------|--1---1-------------3--1--|
--5-----------5---7----8--|--7-----------------------|-----2-----2--------------|
--------------------------|--------------------------|--------3-----------------|
--------------------------|--------------------------|--------------------------|
--4-----------4-----------|--6-----------------------|--1-----------------1-----|


  E  E  E  E  E  E  E  E     E  E  E  E  E  E  E  E     E  E  E  E  E  E  E  E   
--------------------------|--------1--------0--------|--------3--5--3--5--3-----|
--1-----0-----------------|--1---1-------------3--1--|--3-----------------------|
-----------2--------0-----|-----2-----2--------------|-----0--------------------|
--------0--------0-----0--|--------3-----------------|--------0-----------------|
-----2--------------0-----|--------------------------|--------------------------|
--3-----------------------|--1-----------------1-----|--3-----------------------|


  E  E  E  E  E  E  E  E     E  E  E  E  E  E  E  E     E  E  E  E  E  E  E  E     E  E  E  E  E  E  E  E   
--------9--------6--4--3--|--------------------------|--------------------------|--------------------------|
--6---6-------------------|--6-----4-----------------|--1-----------1----0-----1|--3-----------------------|
-----7-----2--------------|--------------------3-----|--2-----------2----0-----2|--3-----------------------|
--0L----------------------|--------------------------|--------------------------|--------------------------|
--------------------------|--6-----------------------|--------------------------|--------------------------|
--------------------------|--------------------------|--1-----------1----0-----1|--3-----------------------|


  E  E  E  E  E  E  E  E     E  E  E  E  E  E  E  E     E  E  E  E  E  E  E  E     E  E  E  E  E  E  E  E   
--------0L----------0--3--|--2-----------------------|-----------------------0--|--------------------------|
--------------------------|-----3-------------------0|--1L----------------1-----|--3-----------------------|
--2----2---------2--------|--------2--------------2--|-----------------2--------|--------------------------|
-----2--------------------|--4-----------------------|--3-----------------3-----|--5-----------------------|
--0-----------------0-----|--0-----------------------|--3-----------------3-----|--5-----------------------|
--------------------------|--------------------------|--1-----------------1-----|--3-----------------------|


  E  E  E  E  E  E  E  E     E  E  E  E  E  E  E  E     E  E  E  E  E  E  E  E     E  E  E  E  E  E  E  E   
--------0L----------0--3--|--2-----------------------|-----------------------3--|--5-----------------------|
--------------------------|-----3--------------1-----|--------1----------3------|--------------------------|
--2----2---------2--------|--------2-----------------|--2-----------4-----------|--------------6-----------|
-----2--------------------|--4-----------------------|--------------------------|--------------7-----------|
--0-----------------0-----|--0-----------------------|--------------------------|--------------7-----------|
--------------------------|--------------------------|--1-----------3-----------|--5-----------------------|
Login or Register to remove this ad.