Ads

Title (Big Brain Academy) (Super Smash Bros. Brawl) Guitar Tab

Submitted: Feb 02, 2010 by hslesperance (Last updated: Mar 30, 2014)

5
Average: 5 (1 vote)
Download | Listen
Game: Super Smash Bros. Brawl
Composer(s): Various Composers
Style: Transcription
Series: Super Smash Bros.

AutoScroll: Slow | Medium | Fast
Title (Big Brain Academy)
Super Smash Bros. Brawl
Composed by Kenta Nagata
Arranged by Toru Minegishi
Tabbed by hslesperance
11/9/08

Standard Tuning

e---5----5-5---------------6----6-6----------------------
B--------------------------------------5-5-5-5-----------
G---------------2-2-2-2----------------3-3-3-3-----------
D--------------------------------------------------------
A--------------------------------------------------------
E--------------------------------------------------------

e-----5-8----5-8--5-8-5-8------5-6----5-6--6-5-6-5-------
B---6------6-----------------8------8--------------------
G--------------------------------------------------------
D--------------------------------------------------------
A--------------------------------------------------------
E--------------------------------------------------------

e-----5-8----5-8--5-8-5-8----6-6-6-6--------5-5-5-5------
B---6------6---------------------------------------------
G--------------------------------------------------------
D--------------------------------------------------------
A--------------------------------------------------------
E--------------------------------------------------------

e----------------------------5--------5------------------
B---8-8-8-8----------------8---8-6--8--------------------
G--------------------------------------------------------
D--------------------------------------------------------
A--------------------------------------------------------
E--------------------------------------------------------

e-----5-8----5-8--5-8-5-8------5-6----5-6--6-5-6-5-------
B---6------6-----------------8------8--------------------
G--------------------------------------------------------
D--------------------------------------------------------
A--------------------------------------------------------
E--------------------------------------------------------

e-----5-8----5-8--5-8-5-8----6-6-6-6--------5-5-5-5------
B---6------6---------------------------------------------
G--------------------------------------------------------
D--------------------------------------------------------
A--------------------------------------------------------
E--------------------------------------------------------

e----------------------------5--------5------------------
B---8-8-8-8----------------8---8-6--8--------------------
G--------------------------------------------------------
D--------------------------------------------------------
A--------------------------------------------------------
E--------------------------------------------------------

e---5----5-5---------------6----6-6----------------------
B--------------------------------------------------------
G---------------2-2-2-2----------------3-3-3-3-----------
D--------------------------------------------------------
A--------------------------------------------------------
E--------------------------------------------------------

e---5----5-5---------------6----6-6----------------------
B--------------------------------------------------------
G---------------2-2-2-2----------------3-3-3-3-----------
D--------------------------------------------------------
A--------------------------------------------------------
E--------------------------------------------------------

e---5----5-5---------------6----6-6----3-6-3-6-----------
B--------------------------------------------------------
G---------------2-2-2-2----------------------------------
D--------------------------------------------------------
A--------------------------------------------------------
E--------------------------------------------------------

e--------------2--------2-2-1----1-3-1-5-----------------
B---3----3-5-3-------------------------------------------
G--------------------------------------------------------
D--------------------------------------------------------
A--------------------------------------------------------
E--------------------------------------------------------

e---5--5-5----5-5-5-5----6--6-6--3-6-3-6-----------------
B--------------------------------------------------------
G--------------------------------------------------------
D--------------------------------------------------------
A--------------------------------------------------------
E--------------------------------------------------------
Login or Register to remove this ad.