Login or Register to remove this ad.

MGS4 ~Theme of Love~ (Super Smash Bros. Brawl) Guitar Tab

Submitted: Feb 02, 2010 by hslesperance (Last updated: Mar 30, 2014)

5
Average: 5 (1 vote)
Download | Listen
Game: Super Smash Bros. Brawl
Composer(s): Various Composers
Style: Transcription
Series: Super Smash Bros.

AutoScroll: Slow | Medium | Fast
MGS4 ~Theme of Love~
Super Smash Bros. Brawl
Composed by Nobuko Toda
Arranged by Akihiro Honda
Tabbed by hslesperance
10/28/08

Standard Tuning

e-----------------10-8-7-8-7---------------------------------
B----------------------------10-----------------8-10-10-10---
G---9p7--10-10-7----------------------------7-9--------------
D--------------------------------7-7-7--7-9------------------
A------------------------------------------------------------
E------------------------------------------------------------

e-----------------10-8-7-8-7---------------------------------
B----------------------------10------------------------------
G---9p7--10-10-7---------------------------------------------
D------------------------------------------------------------
A------------------------------------------------------------
E------------------------------------------------------------

e---------------------------------------0-2-4-5--------------
B-----------------------------0-1-2-3-4----------------------
G-------------------------1-2--------------------------------
D-----------------0-1-2-4------------------------------------
A---------0-2-3-4--------------------------------------------
E---0-2-4----------------------------------------------------

e------------------------------------------------------------
B---5----------6----5--------6-------------------------------
G------------7----7-------------------7----5--4--------------
D------------------------------------------------------------
A------------------------------------------------------------
E------------------------------------------------------------

e------------------------------------------------------------
B------------------------------------------------------------
G---4-5-7------------5-4------------4h5p4--------------------
D-----------------------------------------7------------------
A------------------------------------------------------------
E------------------------------------------------------------

e-----------0-4-5--5--5-----------------------0-4--4-7--5----
B-----0-1-3----------------0-1-3-1-3-0------0----------------
G---2--------------------2----------------1------------------
D------------------------------------------------------------
A------------------------------------------------------------
E------------------------------------------------------------

e------------------------------------------------------------
B---5----------6----5----------------------------------------
G------------7----7-------------------7----5--4--------------
D------------------------------------------------------------
A------------------------------------------------------------
E------------------------------------------------------------

e------------------------4-----------------------------------
B----------------5--6-----------------6-5----6---------------
G---4-5-7--------------7------------------------------7-5----
D------------------------------------------------------------
A------------------------------------------------------------
E------------------------------------------------------------

e---------------------------------------5------------4-------
B------------5-------5----6--------5-------------------------
G---4-------------7------------------------------------------
D------------------------------------------------------------
A------------------------------------------------------------
E------------------------------------------------------------

e--------------7--------7-8-10-------------------------------
B---6h8p6-5--------------------------------------------------
G------------------------------------------------------------
D------------------------------------------------------------
A------------------------------------------------------------
E------------------------------------------------------------

e---17-16----------------------------------------------------
B---------18-17-15-------------------------------------------
G------------------17-16-14-13-------------------------------
D------------------------------15-14-12----------------------
A---------------------------------------15-14-12-------------
E------------------------------------------------------------

e------------------------------------------------------------
B---12----10-12-10------10--12--10---------------------------
G-------------------13---------------------------------------
D------------------------------------------------------------
A------------------------------------------------------------
E------------------------------------------------------------

h - hammer on
p - pull off
Login or Register to remove this ad.

1 comment on MGS4 ~Theme of Love~

amazing

5

amazing