Ads

Humoresque of a Little Dog (Super Smash Bros. Brawl) Guitar Tab

Submitted: Aug 12, 2010 by hslesperance (Last updated: Mar 30, 2014)

0
Download | Listen
Game: Super Smash Bros. Brawl
Composer(s): Various Composers
Style: Transcription
Series: Super Smash Bros.

AutoScroll: Slow | Medium | Fast
Humoresque of a Little Dog
Super Smash Bros. Brawl
Composed by Hirokazu Tanaka
Arranged by Masato Kouda
Tabbed by hslesperance
10/25/08

Standard Tuning

Thanks to Suikoden420 for helping me on this.

e---5----5----5----5------------5-------------------3-----------
B---6----6----7----7----8--7-8-----8-5----3----3-------4-3------
G-----------------------------------------------------------5---
D---------------------------------------------------------------
A---------------------------------------------------------------
E---------------------------------------------------------------

e--------3------3------3------3--------------------------8--6---
B------0------0------0------0----6--5-4--3--------3-4--5--------
G---3------3------3------3------------------5--5----------------
D---------------------------------------------------------------
A---------------------------------------------------------------
E---------------------------------------------------------------

e---5------------7--6-7-------7--6-7------------------7-8-------
B------4--5--------------10-8---------10-8---10--8-10------7--8-
G-----------5---------------------------------------------------
D---------------------------------------------------------------
A---------------------------------------------------------------
E---------------------------------------------------------------

e----------------------------3------------------------------8---
B-------------------------------6----5----3----------3-4--4-----
G---8-9-8-9-------------3--4-------4----4----3-5--5-------------
D-----------9-10---5--4-----------------------------------------
A---------------------------------------------------------------
E---------------------------------------------------------------

e---8--6--5--------5--5--7--5---------5-------------------------
B------------8--5--------------8--7-8----8-5--------8--5--------
G---------------------------------------------7--7-------7--5---
D---------------------------------------------------------------
A---------------------------------------------------------------
E---------------------------------------------------------------

e---------------------------------------------------------------
B---------------------------------------------------------------
G---4--5--------------------------------------------------------
D---------------------------------------------------------------
A---------3-----3-----3-----3-----------------------------------
E------------3-----3-----3--------------------------------------

e--------3------3-------3------3--------------------------8--6--
B------0------0-------0------0----6--5-4--3--------3-4--5-------
G---3------3-------3------3------------------5--5---------------
D---------------------------------------------------------------
A---------------------------------------------------------------
E---------------------------------------------------------------

e---5------------7--6-7-------7--6-7-------------------7-8------
B------4--5--------------10-8---------10-8----10--8-10-----7-8--
G-----------5---------------------------------------------------
D---------------------------------------------------------------
A---------------------------------------------------------------
E---------------------------------------------------------------

e----------------------------3------------------------------8---
B-------------------------------6----5----3----------3-4--4-----
G---8-9-8-9-------------3--4-------4----4----3-5--5-------------
D-----------9-10---5--4-----------------------------------------
A---------------------------------------------------------------
E---------------------------------------------------------------

e---8--6--5--------5--5--7--5---------5-------------------------
B------------8--5--------------8--7-8----8-5--------8--5--------
G---------------------------------------------7--7-------7------
D---------------------------------------------------------------
A---------------------------------------------------------------
E---------------------------------------------------------------

e---------------------------------------------------------------
B--------------------------------------3-2-1-3--2-1--3-2-1-3----
G---5-4-3-5--4-3--5-4-3-5--4-3--5-4-3---------------------------
D---------------------------------------------------------------
A---------------------------------------------------------------
E---------------------------------------------------------------

e---------------------------------------------------------------
B---2-1----------------6-5-4-6--5-4----------------4-3-2-4--3-2-
G--------5-4-3-5--4-3----------------3-2-1-3--2-1---------------
D---------------------------------------------------------------
A---------------------------------------------------------------
E---------------------------------------------------------------

e-----------------3-4--3-1----1--3--4-6--4-3--4----3-4--3-1-----
B---4-3-2-4--3-2------------4-------------------4---------------
G---------------------------------------------------------------
D---------------------------------------------------------------
A---------------------------------------------------------------
E---------------------------------------------------------------

e------------1---------1-----6-8--6-------------8-10--8---------
B---4-3--3-4----4-3--4----9---------9--8-9--11----------11------
G---------------------------------------------------------------
D---------------------------------------------------------------
A---------------------------------------------------------------
E---------------------------------------------------------------

e---10-8--10-------------10--11--10-10-10-10-10-----------------
B-------------11--10-11-----------------------------------------
G---------------------------------------------------------------
D---------------------------------------------------------------
A---------------------------------------------------------------
E---------------------------------------------------------------

e--------3------3-------3------3--------------------------8--6--
B------3------3-------3------3----6--5-4--3--------3-4--5-------
G---4------4-------4------4------------------5--5---------------
D---------------------------------------------------------------
A---------------------------------------------------------------
E---------------------------------------------------------------

e---5------------7--6-7-------7--6-7-----------------7--8-------
B------4--5--------------9-8----------9-8----9--8-9--------7--8-
G-----------5---------------------------------------------------
D---------------------------------------------------------------
A---------------------------------------------------------------
E---------------------------------------------------------------

e----------------------------3------------------------------8---
B-------------------------------6----5----3----------3-4--4-----
G---7-8-7-8-------------3--4-------4----4----3-5--5-------------
D-----------8-9----5--4-----------------------------------------
A---------------------------------------------------------------
E---------------------------------------------------------------

e---8--6--5--------5--5--7--5---------5---------------------11--
B------------8--5--------------8--7-8----7-5--------8--5--------
G---------------------------------------------7--7-------7------
D---------------------------------------------------------------
A---------------------------------------------------------------
E---------------------------------------------------------------

e---9--8------------------8--6--5-------------------------------
B-----------------8--5---------------------8----5---------------
G-----------7--7-------7-------------7--7-----7----5--4--5------
D---------------------------------------------------------------
A---------------------------------------------------------------
E---------------------------------------------------------------

e--------3------3-------3------3--------------------------8--6--
B------3------3-------3------3----6--5-4--3--------3-4--5-------
G---4------4-------4------4------------------5--5---------------
D---------------------------------------------------------------
A---------------------------------------------------------------
E---------------------------------------------------------------

e---5----------5--5--7--5---------5-----------------------------
B------4--5----------------8--7-8----7-5--------8--5------------
G-----------5-----------------------------7--7-------7--5-------
D---------------------------------------------------------------
A---------------------------------------------------------------
E---------------------------------------------------------------
Login or Register to remove this ad.