Ads

Sakura's Theme (Super Puzzle Fighter II Turbo) Guitar Tab

Submitted: Oct 12, 2010 by ChelseaRare

5
Average: 5 (4 votes)
Download | Listen
Game: Super Puzzle Fighter II Turbo
Composer(s): Shun Nishigaki
Style: Arrangement, Fingerstyle
Series: Street Fighter

AutoScroll: Slow | Medium | Fast
Game: Super Puzzle Fighter II Turbo
Song: Sakura's Theme
Composer: Shun Nishigaki
Agganged by: Chelsea Intal
October 11, 2010

Tuning: Standard (EADGBe)
BPM: 110
Key: G Major

                       Segno
     Q    Q    Q       E  S E.  E  E  E  E  E     E  E  E  E  E  E  E  E   
E||-----------------|-------0---0--------0-----|--3-----2-----0-----------|
B||-------0----3----|--3--------------3-----3--|--------------------3-----|
G||--0--------------|-----0--------------------|-----0-----0-----0-----0--|
D||-----------------|--------------------------|--0-----------0-----------|
A||-----------------|--3-----------3-----------|--------------------------|
E||-----------------|--------------------------|--------------------------|


  E  S E.  E  E  E  E  E     E  S E.  E  E  E  E  E   
-------0---0--------0-----|-------0---0--------------|
--3-----------------------|--3-----------------0--3--|
-----0-----------0-----0--|-----0-----------0--------|
--2-----------2-----------|--2-----------2-----------|
--------------------------|--------------------------|
--------------------------|--------------------------|


  E  S E.  E  E  E  E  E     E  E  E  E  E  E  E  E   
-------0---0--------0--2--|--3-----2-----3-----5-----|
--3--------------3--------|--------------------------|
-----0--------------------|-----0-----0-----0-----0--|
--------------------------|--0-----------0-----------|
--3-----------3-----------|--------------------------|
--------------------------|--------------------------|


  E  S E  S E  E  E  E  E     E  S E  S E  E  E  E  E   
--2----3----0--------------|--2----3----0--------------|
---------------------0-----|---------------------0-----|
-----0------------0-----0--|-----0------------0-----0--|
--2-------2----2-----------|--2-------2----2-----------|
---------------------------|---------------------------|
---------------------------|---------------------------|


  E.  E.  S S E  S E.  E     E.  E.  S S E  S E.  E   
--3---3-------5----5---7--|----------0---5----5---7--|
----------5-3-------------|--8---8-------------------|
--------------------------|------------7-------------|
-----------------0--------|--0-----------0--7--------|
--3-----------3-----------|--------------------------|
--------------------------|--------------------------|


  E  E  E  E  E  E  E  E     E  E  E  E   E   E  Q       Q.     Q    E  Q     
-----------0-----0-----0--|---------------0-----------|--0------0------------|
--8--7--------------------|---------------------------|--0------0-------7----|
--------------------7-----|----------------------7----|--0------0-------0----|
--------------------------|----------------------9----|----------------------|
--7-----7-----7-----------|--7--7--9--9--10--10-------|----------------------|
--------------------------|---------------------------|--8-----------8-------|


  Q.     Q.     S S S S     E  S E  S E  E  E  E  E   
------------------0-----|--------7-------------------|
--8------8------------0-|--10---------8-----8-----8--|
--7------7----------7---|------7---------------7-----|
--0------0--------------|----------------------------|
------------------------|---7-------7----7-----------|
------------------------|----------------------------|


   E  S E  S E  Q    Q       E  S E  S E  E  E  Q       E  E  E  Q.     Q     
------7-------------------|--------------------------|--------6--------------|
--10----8--7-8------------|--7----7--7-6--4-----4----|--7--9-----9-----------|
--------------------------|------------------6-------|-----------------------|
--------------------------|-----6--------------------|-----------8-----------|
--------------------------|--------------------------|-----------------------|
---0----0----0--0----0----|--4-------4----4----------|--6-----6---------6----|


  E  S E.  E  E  E  Q        E   S E.  Q.     Q       E  S E  S E  E  E  Q     
--6-----------------9----|-------------------------|---------------0-----0----|
-------9---9-------------|--11-----9---9-----------|--8----8--8-7-------------|
-----8-----------8-------|------10-----------------|------------------7-------|
-------------------------|-------------------------|-----7--------------------|
-------------------------|-------------------------|--0-------0----0----------|
--7-----------7----------|---9----------------9----|--------------------------|


  E   E  E   Q.     Q       E  S  E.   E  E  E   Q     
---------7---------------|--7-------------------10----|
--8--10-----10-----------|-------10---10--------------|
-------------------------|-----9-------------9--------|
-------------9-----------|----------------------------|
-------------------------|----------------------------|
--7------7----------7----|--8-------------8-----------|

                               Fine              D.S al Fine
  E   S  E  S  E  Q    Q       E  E  E  E     E  E  E  E    
--8-----10------------------|--------------|--------------||
--------------12------------|--------------|--------0--3--||
-----11---------------------|--------------|-----0--------||
--0---------0-----0----0----|--0--0--0--0--|--------------||
----------------------------|--------------|--------------||
----------------------------|--------------|--------------||




Duration Legend
---------------
W - whole
H - half
Q - quarter
E - 8th
S - 16th
. - note dotted
Login or Register to remove this ad.

4 comments on Sakura's Theme

Cheats!

Just today I've been working on an own arrangement of this song.

First Jacob, now Trang... Who

First Jacob, now Trang... Who will be Chelsea's next victim?

It's a secret.

It's a secret.

WOW

5

Wow love this song thanks for tabbing it >.<