Ads

Wavy Beach 1 (Super Princess Peach) Bass Tab

Submitted: Jul 30, 2010 by auriplane

0
Download | Listen
Game: Super Princess Peach
Composer(s): Akira Fujiwara
Style: Transcription
Series: Mario

This song is also called スイスイビーチ1

AutoScroll: Slow | Medium | Fast
           Super Princess Peach - Wavy Beach 1 BASS TAB
                   Composed by Akira Fujiwara

              Tabbed by Auriplane ([email protected])


Four-string bass, standard tuning.  This song has a 16th note
"triplet feel".  At the end of part B, I put in an open string
note--this is to let you switch back up to sixth position more
easily :-)

The rhythm in this can be a little tricky.  This tab is written
out proportionate to the note timing, but if you prefer, there
is also a PDF with sheet music, and the GP5 has tablature and
sheet music both.



        Part A


G |-----------------8------|----10------------------|  \
D |-----8------------------|-------10--------8---7--|   \
A |--------8---6--------6--|8--------8--------------|    |
E |6--------6--------------|------------6-----------|    |
                                                         | x2
                                                         |
G |------------------------|----10-------10---------|    |
D |-----------10-------10--|-------10---8-----------|    |
A |10------10--------------|8--------8-------8--8---|   /
E |----10-----------8------|------------------------|  /


G |------------------------|------------------------|
D |------------------------|--8----10---11---12-----|
A |------------------------|------------------------|
E |6-----------------------|6----68----8--9-----10--|


        Part B


G |-----8------------------|------------------------|
D |--------8------8--------|------7----5------------|
A |6--------6----------6---|5--5----------5--5---5--|
E |------------------------|--------------------3---|


G |-----5------------------|-----------3------------|
D |--------5---3--------3--|------3--------------0--|
A |3--------3--------------|1--1----------1--1--3---|
E |-----------------1------|------------------------|


G |-----8------------------|------------------------|
D |--------8------8--------|------7----5------------|
A |6--------6----------6---|5--5----------5--5---5--|
E |------------------------|--------------------3---|


G |-----5------------------|---3----1-2-3-----------|
D |--------5---3-----------|------------------3-----|
A |3--------3--------------|1-----------------------|
E |------------------1-----|------------------------|
Login or Register to remove this ad.