Ads

Hoo's Wood 2 (Super Princess Peach) Bass Tab

Submitted: Jul 31, 2010 by auriplane

0
Download | Listen
Game: Super Princess Peach
Composer(s): Akira Fujiwara
Style: Transcription
Series: Mario

AutoScroll: Slow | Medium | Fast
               Super Princess Peach - Hoo's Wood 2 BASS TAB
                      Composed by Akira Fujiwara

                 Tabbed by Auriplane ([email protected])




Four-string bass, standard tuning.  Rest for one measure at the start.


        Part A


G |----7-----------|----------------|----------------|----------------|
D |--------5-5---7-|----------------|----------5---7-|----------7-----|
A |5-----5---------|----------------|5---5-----------|------------7---|
E |----------------|----5-----5-8-5-|----------------|--------------5-|


G |----7-----------|----------------|----------------|----------------|
D |--------5-5---7-|------5---5---5-|4---4---------7-|------7---------|
A |5-----5---------|------------5---|----------7-----|----------------|
E |----------------|----------------|----------------|----------5-8-5-|


        Now, play part A again, before continuing.

        Part B


G |----------------|----------------|
D |--------5-5-----|------------4---|
A |----5---------5-|------5---7-----|
E |----------------|----------------|


G |----------------|------4-----4---|----------------|------3---------|
D |5-----5-----5---|4---------------|2-----2---------|3---------------|
A |----------5-----|----------2-----|----------------|----------------|
E |----------------|----------------|----------------|----------------|


G |4-----------4---|----------------|2---2---------2-|----------------|
D |------4---------|2-2-2-2---2-----|----------2-----|----------------|
A |----------------|----------------|----------------|----------------|
E |----------------|----------------|----------------|----------------|

Login or Register to remove this ad.