Ads

Gleam Glacier 2 (Super Princess Peach) Bass Tab

Submitted: Jul 30, 2010 by auriplane (Last updated: Jul 30, 2010)

0
Download | Listen
Game: Super Princess Peach
Composer(s): Akira Fujiwara
Style: Transcription
Series: Mario

This song is also called シクシク氷山2

AutoScroll: Slow | Medium | Fast
           Super Princess Peach - Gleam Glacier 2 BASS TAB
                     Composed by Akira Fujiwara

               Tabbed by Auriplane ([email protected])


Four-string bass, standard tuning.  I've marked certain notes with
a "t", for "tenuto".  Play those notes for their full value.  All
other notes, play staccato (short).




        Part A

G |----------------|----------------|----------------|----------------|
D |----------------|----------------|----------------|----------------|
A |5-------7-------|5-------7-----4-|5-------7-------|5-------7-------|
E |----5-------5---|----5-----5-7---|----5-------5---|----5-------5---|
                              t

G |----------------|----------------|----------------|----------------|
D |3-------5-------|3-------5-----2-|3-------5-------|3-------5-------|
A |----3-------3---|----3-----3-5---|----3-------3---|----3-------3---|
E |----------------|----------------|----------------|----------------|
                              t

        Part A'


G |----------------|----------------|----------------|----------------|
D |----------------|----------------|----------------|----------------|
A |5-------7-------|5-------7-----4-|5-------7-------|5-------7-------|
E |----5-------5---|----5-----5-7---|----5-------5---|----5-------5---|
                              t

G |----------------|----------------|----------------|----------------|
D |3-------5-------|3-------5-----2-|3-------5-------|3-------5-------|
A |----3-------3---|----3-----3-5---|----3-------3---|----3-----------|
E |----------------|----------------|----------------|----------------|
                              t

        Part B


G |6---------------|--------3-------|----------------|
D |------------4---|3---------------|----4---3-------|
A |----4---6-------|----4-----------|6---------------|
E |----------------|------------6---|------------6---|
   t   t   t   t    t   t   t   t    t   t   t   t

G |----3-----------|----------------|----------------|
D |--------6-------|----7-----------|----------------|
A |6---------------|--------7---4---|----------------|
E |------------4---|5---------------|5-5-5-5---5--5--|
   t   t   t   t    t   t   t   t                 t



Login or Register to remove this ad.