Ads

Fury Volcano 1 (Super Princess Peach) Bass Tab

Submitted: Jul 26, 2010 by auriplane

5
Average: 5 (1 vote)
Download | Listen
Game: Super Princess Peach
Composer(s): Akira Fujiwara
Style: Transcription
Series: Mario

This song is also called ムカム火山1

AutoScroll: Slow | Medium | Fast
                Super Princess Peach - Fury Volcano 1 BASS TAB
                          Composed by Akira Fujiwara

                   Tabbed by Auriplane ([email protected])


Five-string bass, standard tuning.  By the way, this game is totally underrated.


G |----------------|----------------|----------------|-----------6----|
D |---6------------|---6------------|---6------------|---6------------|
A |--------4-----4-|--------4--4----|--------4-----4-|--------4-----4-|
E |4-----4---------|4-----4---------|4-----4---------|4-----4---------|
B |-----------2----|--------------2-|-----------2----|----------------|


G |----------------|----------------|----------------|----------------|
D |---6------------|---6------------|---------8------|----------------|
A |--------4-----4-|--------4--4----|------7---------|6---------------|
E |4-----4---------|4-----4---------|6--6--------6---|----------------|
B |-----------2----|--------------2-|----------------|-------------4--|


G |----------------|----------------|----------------|-----------6----|
D |---6------------|---6------------|---6------------|---6------------|
A |--------4-----4-|--------4--4----|--------4-----4-|--------4-----4-|
E |4-----4---------|4-----4---------|4-----4---------|4-----4---------|
B |-----------2----|--------------2-|-----------2----|----------------|


G |----------------|----------------|----------------|----------------|
D |----------------|----------------|----------------|----------------|
A |--------7-------|6---------------|---7----6-----6-|----------------|
E |---7-------7----|----------------|----------------|4---------------|
B |5-----5-------5-|----4-----------|5-----5----4----|-------------4--|


G |----------------|----------------|----------------|----------------|
D |---6------------|---6------------|---6------------|----------------|
A |--------4-----4-|--------4--4----|--------4-----4-|---7----6--6----|
E |4-----4---------|4-----4---------|4-----4----4----|----------------|
B |-----------2----|--------------2-|----------------|5-----5-------4-|


G |----------------|----------------|----------------|----------------|
D |---6------------|---6------------|----------------|----------------|
A |--------4-----4-|--------4--4----|---7----6-----6-|----------------|
E |4-----4---------|4-----4---------|----------------|4---------------|
B |-----------2----|--------------2-|5-----5----4----|-------------4--|
Login or Register to remove this ad.