Ads

Boss (Super Princess Peach) Bass Tab

Submitted: Jul 28, 2010 by auriplane

0
Download | Listen
Game: Super Princess Peach
Composer(s): Akira Fujiwara
Style: Transcription
Series: Mario

AutoScroll: Slow | Medium | Fast
                    Super Princess Peach - Boss BASS TAB
                        Composed by Akira Fujiwara

                   Tabbed by Auriplane ([email protected])



Five-string bass, standard tuning.



    Intro


   Q   Q   Q   Q    Q   Q   Q   E E
G |----------------|----------------|
D |3---------------|5---5---5---5---|
A |----------------|----------------|
E |----------------|--------------3-|
B |----------------|----------------|


    Part A   (Play twice)


   Q.    E E E Q    E E E E E E Q    Q.    E E E Q    E E E E E E Q
G |----------------|----------------|------------4---|L-----4-L-------|
D |------------7---|L-----------7---|------4-L-------|----------4-----|
A |------7-L-------|------7-L-------|2---------2-----|--2-L-------2---|
E |5---------5-----|--5-L-----5-----|----------------|----------------|
B |----------------|----------------|----------------|----------------|


   Q.    E E E Q    E E E E E E Q    Q.    E E E Q    Q.    E E E E E
G |------------5---|L-----5-L-------|----------------|----------------|
D |------5-L-------|----------------|----------------|----------------|
A |3---------3-----|--3-L-----3-5---|6---------------|------7-L-------|
E |----------------|----------------|------6-L-------|----------------|
B |----------------|----------------|----------4-L---|5---------5-5-5-|


    Part B


   Q.    Q.    E E  Q.    E E E Q    Q.    Q.    E E  Q.    E E E Q
G |----------------|----------------|----------------|----------------|
D |----------------|----------------|------8---------|------8-L-------|
A |------8---------|----------------|----------------|----------8-----|
E |----------------|------------5---|6-----------6-6-|------------6---|
B |6-----------6-6-|------6-L-8-----|----------------|----------------|


   Q.    Q.    Q    Q.    Q.    Q    Q.    E E Q.     E E E E H
G |----------------|----------------|----------------|----------------|
D |----------------|------6---------|------5-L-------|----------------|
A |6-----------6---|----------------|----------------|----------------|
E |----------------|4-----------4---|3---------4-----|5-5-5-5---------|
B |------4---------|----------------|----------------|----------------|


    Part C


   H       E E Q    Q.    Q.    Q    H       E E Q    Q.    Q.    Q
G |----------------|7-----------7---|----------------|----------------|
D |----------7-----|----------------|5---------5-----|5-----------5---|
A |5-------L---5---|------5---------|------------5---|----------------|
E |----------------|----------------|----------------|------3---------|
B |----------------|----------------|----------------|----------------|


   H       E E Q    Q.    Q.    Q    H       E E E E  Q.    Q.    Q
G |----------------|7-----------7---|----------------|----------------|
D |----------7-----|----------------|5---------5-L---|5---------------|
A |5-------L---5---|------5---------|----------------|------5-----7---|
E |----------------|----------------|----------------|----------------|
B |----------------|----------------|----------------|----------------|




Duration Legend
---------------
W - whole
H - half
Q - quarter
E - 8th
S - 16th
. - note dotted


Tablature Legend
----------------
L - tied note

Login or Register to remove this ad.