Ads

Fountain (The 7th Saga) Guitar Tab

Submitted: Aug 08, 2008 by Krimson

0
Download | Listen
Game: The 7th Saga
Composer(s): Norihiko Yamanuki
Style: Transcription

AutoScroll: Slow | Medium | Fast
Tune: Fountain
Game: 7th Saga (SNES)
Composer: Norihiko Yamanuki
Tabber: Krimson
Style: electric - transcribed

A short but nice tune from 7th Saga.  The first part is the tab for
the midi I found for the song, and the second one is the tab of the 
same song as I seem to remember it.  The only difference is one 
note (the tenth), and I put no faith in memory whatsoever :)

Tab according to midi:

e||---4---11--9-8-9--11-8-------------------------------------------
B||-4---------------------9---9-9-----------------------------------
G||-------------------------8---------------------------------------
D||-----------------------------------------------------------------
A||-----------------------------------------------------------------
E||-----------------------------------------------------------------

The way I remember it:

e||---4---11--9-8-9--11-8-------------------------------------------
B||-4---------------------9-11-9-9----------------------------------
G||-----------------------------------------------------------------
D||-----------------------------------------------------------------
A||-----------------------------------------------------------------
E||-----------------------------------------------------------------
Login or Register to remove this ad.