Ads

Unforeseen Ocurrence (Terranigma) Guitar Tab

Submitted: Apr 10, 2009 by Agahnim (Last updated: Feb 03, 2010)

5
Average: 5 (6 votes)
Download | Listen
Game: Terranigma
Composer(s): Miyoko Kobayashi, Masanori Hikichi
Style: Arrangement, Fingerstyle, Tapping

AutoScroll: Slow | Medium | Fast
Unforeseen Occurrence
Terranigma
Composed by: Miyoko Kobayashi, Masanori Hikichi
Arranged by: Ivo Koporcic
April 09, 2009

CAPO on 1

       E  E  Q    Q       E  E  Q     Q       E  E  Q    Q     
F ||---0-----7---------|-------------10----|--9--5------------|
C ||------0------------|-------------------|--------5---------|
G#||*--------0---------|--------0----------|--------6---------|
D#||*------------------|-------------------|------------------|
A#||------2------------|-----2-------------|-------------7----|
F ||---0----------7----|--0-----------0----|--5-----L---------|


  E  E  Q    Q       E  E  Q    Q       E  E  Q     Q       E   E   Q     Q     
------------------|--0-----7---------|-------------10----|--9--10--12----------|
--------0---------|-----0------------|-------------------|---------------------|
------------------|--------0---------|--------0----------|---------------------|
------------------|------------------|-------------------|---------11----12----|
-----7------------|-----2------------|-----2-------------|------7--------------|
--5----------5----|--0----------7----|--0-----------0----|--5------------12----|


                         TH   TH   TH   TH   TH                      
  E  E  E  E  E  E       E    E    E    E    Q       E  E  H         
--0-----------------|--<>3--<>2--<>0-------<>0----|--------0--------|
--------0-----------|--------------1--<>3---------|-----------------|
--------------------|---------0-------------------|-----0-----------|
-----2-----2--------|------------------------5----|-----------------|
--0-----------0--2--|----3------------------------|--3--------------|
--------------------|-----------------------------|-----------------|


    TH   TH   TH   TH   TH        TH                 
    E    E    E    E    Q         E  E  E  E  E  E   
--<>3--<>2--<>0-------<>0----|----------2--3--2-----|
-----------------<>3---------|-------3-----------3--|
--------------2--------------|--<>2-----------------|
----0------------------------|----0-----------------|
------------------------0----|----------------------|
-----------------------------|----------------------|


    TH   TH   TH   TH   TH                      
    E    E    E    E    Q       E  E  H         
--<>3--<>2--<>0-------<>0----|--------0--------|
--------------1--<>3---------|-----------------|
---------0-------------------|-----0-----------|
------------------------5----|-----------------|
----3------------------------|--3--------------|
-----------------------------|-----------------|


    TH   TH  TH  TH  TH   TH   TH        TH                   
         |---3---|                                            
    E    S   S   S   E    E    Q         E  E  E  E  E  E     
--<>3--<>2-<>3-<>2-<>0-------<>0----|----------2--3--2------||
------------------------<>3---------|-------3-----------3---||
---------------------2--------------|--<>2-----------------*||
----0-------------------------------|----0-----------------*||
-------------------------------0----|-----------------------||
------------------------------------|-----------------------||




Duration Legend
---------------
W - whole
H - half
Q - quarter
E - 8th
S - 16th
T - 32nd
X - 64th
. - note dotted
|-n-|  - n-tuplets


Tablature Legend
----------------
L - tied note
x - dead note
g - grace note
(n) - ghost note
> - accentuded note
NH - natural harmonic
AH - artificial harmonic
TH - tapped harmonic
SH - semi harmonic
PH - pitch harmonic
h - hammer on
p - pull off
b - bend
br - bendRelease
pb - preBend
pbr - preBendRelease
brb - bendReleaseBend
\n/ - tremolo bar dip
\n - tremolo bar dive
-/n - tremolo bar Release up
/n\ - tremolo bar inverted dip
/n - tremolo bar return
-\n - tremolo bar Release down
S - shift slide
s - legato slide
/ -  slide into from below or out of upwards
\ -  slide into from above or out of downwards
~ - vibrato
W - wide vibrato
tr - trill
TP - tremolo picking
T - tapping
S - slap
P - pop
< - fade in
^ - brush up
v - brush down

Login or Register to remove this ad.

5 comments on Unforeseen Ocurrence

great

i like this song...nice tab bro

Woo! An arrangement easy

5

Woo! An arrangement easy enough to sight read ^-^ Pretty song, too. This site needs more Terranigma tabs!

I didn't know people did tap harmonics on guitar too. I learned those on bass. Neat!

i am forgot to put it 5 star

5

i am forgot to put it 5 star

I'll try to do more, i love playing vg music

When i found this site I found a paradise of people that also likes VG music... i don't know anybody like this in Real Life ( as i call people I know personally xd)

more of this! terranigma

more of this! terranigma still has great tunes that need to be tabbed :>