Ads

Europe (Terranigma) Guitar Tab

Submitted: Apr 13, 2009 by Agahnim (Last updated: Feb 03, 2010)

5
Average: 5 (5 votes)
Download | Listen
Game: Terranigma
Composer(s): Miyoko Kobayashi, Masanori Hikichi
Style: Arrangement, Fingerstyle

This song is also called Town

AutoScroll: Slow | Medium | Fast
Town
Terranigma
Composed by: Miyoko Kobayashi, Masanori Hikichi
Arranged by: Ivo Koporcic
April 13, 2009

Capo on 1
Some notes are staccato but I haven't put them here to ease reading while playing along
you can use the MIDI, or the original soundtrack 
to get the right accentuation

      E  E  E  E  E  E     E  E  E  E  E  E       S S S S S S S S S S S S  
F ||-----5--5-----5--5--|-----5--5--5--5--5--||-------2-0-2-3-5---5-3-2---|
C ||-----7--7-----5--5--|-----3--3--2--3--5--||-------3---3-------2---2-5-|
G#||--------------------|--------------------||*------2---2-------2---2---|
D#||--0-----------------|--------------------||*--0---------0-------------|
A#||-----------4--------|--2--------0--2--4--||---------------4-----------|
F ||--------------------|--------------------||---------------------------|


  S S S S S S S S S S S S    S S S S S S S S S S E     S S S S S S S S S S S S  
--------------2-----------|------------0-2----------|------------0-------------|
--3---3-2-3-5-----2---2---|--0---0-2-3-------3------|--0---0-2-3---2-----------|
------4---4-------2---2---|----3-0---0-------2---2--|------0---0-----------2---|
------4---4---------------|------0---0-------4---4--|--------------------------|
--2---------2-0-----------|-------------------------|--------------0---2---4---|
--------------------------|--3---------3-2----------|--0---------0-------------|


  S S S S S S S S S S S S    S S S S S S S S S S S S    S S S S S S S S S S E   
------2-3-5-7-5---5-3-2---|--------------2-----------|------------0-2-------5--|
------3---3-------2---2-5-|--3---3-2-3-5-----2---2---|--0---0-2-3-------3------|
------2---2-------2---2---|------4---4-------2---2---|----3-0-----------2------|
--0---------0-------------|------4---4---------------|------0-----------4------|
--------------4-----------|--2---------2-0-----------|-------------------------|
--------------------------|--------------------------|--3---------3-2----------|


  S S E  S S S S S S S S    E  S S E  E  S S S S    E  S S S S S S S S E   
--3-5-7------------------|--2------2--0------0---|-------------2----------|
---------2---3---------0-|-------3---------------|-------2-3-5-----3------|
---------2---2---2-------|-----4-----------2-----|-----4---------------2--|
-------------0---0-------|---------------2-------|--0---------------------|
---------0---------------|------------0--------0-|-------------2----------|
--0----------------------|--3--------------------|---------------------3--|


  E  S S S S E  S S E     E  S S S S E  S S E   
--0------0-------------|---------0-7-5---------|
-------2-----3------3--|-----2-3------------3--|
-----2-----2------2----|-------------6--6------|
----------------4------|-------------4---------|
-------------2------2--|-----------------------|
--2------2-------------|--2-----------------2--|


              |-3-| |-3-| |-3-|                             
  S S S S S S S S S S S S S S S    S S S S S S S S S S S S  
--3-2-3-5-7-3-0---------------0-|--2-1-2-3-5-2-------------|
--------------------------2-3---|--------------3-----0-----|
----------------1-2-4-2-4-------|------------------0---0---|
--------------------------------|--0-------0-----0-------0-|
--------------0-----------------|--------------------------|
--0-------0---------------------|--------------3-------2---|


  S S S S S S E  E  S S    Q    S S E  E  E     S S S S S S S S S S S S  
--0---0-----------------|--2--------2--3--0--|------2-3-5-7-5---5-3-2---|
--0-----3-2-0-2-------0-|--2-----------------|------3-----------2-----5-|
----------0---3--3--3---|-----------2--4-----|--------------------------|
------------------------|-----------4--2-----|--0---------0-------------|
------------------------|-------4---------4--|--------------4-----------|
--0-------0---1-----1---|--2-----------------|--------------------------|


  S S S S S S S S Q       S S S S S S E  E  E     S S S S S S E  E  E   
--------------2--------|------------0-2--------|------------0----------|
--3---3-2-3-5-----2----|--0---0-2-3------3-----|--0---0-2-3---2--------|
------4-----------2----|----3-0----------2--2--|------0-------------2--|
-----------------------|-----------------------|-----------------------|
--2---------2-0--------|-----------------------|--------------0--2--4--|
-----------------------|--3---------3-2--------|--0---------0----------|


  S S S S S S S S S S S S    S S S S S S S S E  E     S S S S S S E  E  E   
------2-3-5-7-5---5-3-2---|--------------2---------|------------0-2-----5--|
------3-----------2-----5-|--3---3-2-3-5-----2-----|--0---0-2-3------3-----|
--------------------------|------4-----------2--2--|----3-0----------2-----|
--0---------0-------------|------------------------|-----------------------|
--------------4-----------|--2---------2-0---------|-----------------------|
--------------------------|------------------------|--3---------3-2--------|


  S S E  S S S S S S S S          
--3-5-7-------------------||----||
---------2---3------------||----||
---------2---2---2-------*||----||
-------------0---0-------*||----||
---------0----------------||----||
--0-----------------------||----||




Duration Legend
---------------
W - whole
H - half
Q - quarter
E - 8th
S - 16th

|-n-|  - n-tuplets

Login or Register to remove this ad.

2 comments on Europe

One of the best id heard

One of the best id heard great work maybe adding in a second guitar may help

i love that tab. thank you so

i love that tab. thank you so much for submitting and sharing it.