Ads

Skull & Crossbones (Teenage Mutant Ninja Turtles IV: Turtles in Time) Guitar Tab

Submitted: Apr 17, 2008 by Strummer (Last updated: Apr 17, 2008)

0
Download | Listen
Game: Teenage Mutant Ninja Turtles IV: Turtles in Time
Composer(s): Kazuhiko Uehara, Harumi Ueko
Style: Transcription

AutoScroll: Slow | Medium | Fast
Skull & Crossbones
Tabbed by: Strummer

e-----7-------9--8-------9--8----7-----------
B-10-------10---------10------10----10--8-10-
G--------------------------------------------
D--------------------------------------------
A--------------------------------------------
E--------------------------------------------

e-----7-------9--8-------9--8----7------7----
B-10-------10---------10------10----10----8--
G--------------------------------------------
D--------------------------------------------
A--------------------------------------------
E--------------------------------------------

e---------------------------8----------
B-8--10----8-10-8-9----8-10------10--8-
G--------------------------------------
D--------------------------------------
A--------------------------------------
E--------------------------------------

e---------------------------8--9--10---
B-8--10----8-10-8-9----8-10------------
G--------------------------------------
D--------------------------------------
A--------------------------------------
E--------------------------------------


e----12-12-12-12-------12-12-12-15-14-------12-12-12-12-----12-----12-
B-15----------------15-------------------15--------------15-----15----
G---------------------------------------------------------------------
D---------------------------------------------------------------------
A---------------------------------------------------------------------
E---------------------------------------------------------------------


e----12-12-12-12-----12-15-14--13-12------12-12-12-12-----12-----12---
B-15--------------15-------------------15--------------15-----15------
G---------------------------------------------------------------------
D---------------------------------------------------------------------
A---------------------------------------------------------------------
E---------------------------------------------------------------------
Login or Register to remove this ad.