Ads

The Second Act (Tales of Phantasia) Guitar Tab

Submitted: Feb 27, 2009 by Gloups

5
Average: 5 (3 votes)
Download | Listen
Game: Tales of Phantasia
Composer(s): Motoi Sakuraba, Shinji Tamura
Style: Transcription

AutoScroll: Slow | Medium | Fast
                           > The Second Act <
                                      From : Tales of Phantasia  
                                      Year : 1995 (SNES version)                           

Tabbed by : Gloups
02.24.2009

BPM : 130

                                 / 
E||------------------------------|---------------------------
B||------------------------------|-----3---------------------
G||----------2-------------------|---2----5--2---------------
D||--3--3-5-----3--5------2------|-3------------2-3-5--------
A||------------------5-5-----4---|---------------------5-5---
E||------------------------------|---------------------------
                                 \


                                                x2
                                                   \
E||------------------------------------------------|
B||-----------------------5-5/6-5-3----------------|
G||-----------------2--5------------2------------3-|
D||----2-3--5--3-----------------------3--2-3-5----|
A||--5---------------------------------------------|
E||------------------------------------------------|
                                                   /




E||-------3/5--3-------------------------------5---
B||-----3--------5---5/6--3------------3-----------
G||-3-2------------5--------2--0--5-------2-3------
D||------------------------------------------------
A||------------------------------------------------
E||------------------------------------------------

   -3-------------------3-5-|
   ---5----3-5-6--3-5-6-----|
   -----5-------------------|
   -------------------------|
   -------------------------|
   -------------------------|


   
   ->Part "A" :

E||----------3/5--3---3--5/6-6--5---------7-7--5--
B||-3------3----------------------6-----8---------
G||----2-2----------5-----------------7-----------
D||-----------------------------------------------
A||-----------------------------------------------
E||-----------------------------------------------

   ----------------------------|
   -5-5-6-5-----5---8-8/10-7---|
   ---------7-7---5------------|
   ----------------------------|
   ----------------------------|
   ----------------------------|



           H. P.O.                           H. P.O.
E||--10-12-13-12----13--10-------------10-12-13-12--
B||--------------13--------10-----13----------------
G||----------------------------12-------------------
D||-------------------------------------------------
A||-------------------------------------------------
E||-------------------------------------------------


   ----13--10-13-12--12/15----|
   -13------------------------|
   ---------------------------|
   ---------------------------|
   ---------------------------|
   ---------------------------|


   ->Part "A" again :

E||----------3/5--3---3--5/6-6--5---------7-7--5--
B||-3------3----------------------6-----8---------
G||----2-2----------5-----------------7-----------
D||-----------------------------------------------
A||-----------------------------------------------
E||-----------------------------------------------

   ----------------------------|
   -5-5-6-5-----5---8-8/10-7---|
   ---------7-7---5------------|
   ----------------------------|
   ----------------------------|
   ----------------------------|

  then,

E||---------------------------------------------------
B||----15-13------------------------------------------
G||-12-------12-14----------------------12------------
D||----------------------12-14-15-14-15-----14--------
A||------------------15-------------------------15----
E||---------------------------------------------------

   -----------------------------------------------|
   ----15-13--------------------------------------|
   -12-------12-14--------------------------------|
   ------------------14--12-14-15--14--12--11-----|
   -----------------------------------------------|
   -----------------------------------------------|
                                                    and return to top... :)
Login or Register to remove this ad.

1 comment on The Second Act

Nice

5

Sounds great.
By far the Second Act had the best story flow. Got used to listening to this.