Ads

Tetoroika (Super Tetris 3) Guitar Tab

Submitted: Oct 03, 2007 by Jon Wagner

0
Download | Listen
Game: Super Tetris 3
Composer(s): Unknown
Style: 2 or more instruments, Transcription
Series: Tetris

AutoScroll: Slow | Medium | Fast
                                    TETOROIKA

  Q=137
 4/4
  Gtrs I, IV
  E S S E S S S  S S S S S S S   E S S E S S E E E E
|------------------------------|---------------------|
|---5-5---6-8-6--8-------------|---5-5---------------|
|-2-------------10-9-7-5-4-----|---------------------|
|--------------------------6---|-7-------7-9-7-6---6-|
|-------7--------------------7-|-------7---------7---|
|------------------------------|---------------------|

  E S S E S S S  S S S S S S S   E S S E S S E E E E   E E E E E E E E
|------------------------------|---------------------|------------------|
|---5-5---6-8-6--8-------------|---5-5---------------|------------------|
|---------------10-9-7-5-4-----|---------------------|------------------|
|-7------------------------6---|-7-------7-9-7-6---6-|---7---7---7---7--|
|-------7--------------------7-|-------7---------7---|------------------|
|------------------------------|---------------------|------------------|
|
| Gtrs II, III
| W                              W                     H       H
|------------------------------|---------------------|------------------|
|------------------------------|---------------------|-5----------------|
|------------------------------|---------------------|---------5--------|
|------------------------------|---------------------|------------------|
|------------------------------|---------------------|------------------|
|------------------------------|---------------------|------------------|

  E E E E E E E E   E E E E  E  E  E  E
|-----------------|---------------------|
|-----------------|---------------------|
|-----------------|---------------------|
|---6---6---6---6-|---7---7-----7-----7-|
|-----------------|---------------------|
|-----------------|---------------------|
|
| H       H         E E E E  E  E  E  E
|-----------------|---------------------|
|-3---------------|---------------------|
|---------4-------|-5-------------------|
|-----------------|---6-7-9-10----------|
|-----------------|------------12-14-15-|
|-----------------|---------------------|

   E E E E  E E E E    E E E E   E   E  E  E
|-------------------|------------------------|
|-------------------|------------------------|
|-------------4---4-|----2---2-------2-----2-|
|----6---6----------|------------------------|
|-------------------|------------------------|
|-------------------|------------------------|
|
|  H        H          H        +E   E  E  E
|-------------------|------------------------|
|-------------------|------------------------|
|-------------------|------------------------|
|-------------------|-14-------(14)----------|
|-17----------------|---------------12-14-15-|
|----------16-------|------------------------|

   E E E E   E   E  E  E    E E E E  E E E E
|------------------------|-------------------|
|------------------------|-------------------|
|----1---1-------1-----1-|----2---2----4---4-|
|------------------------|-------------------|
|------------------------|-------------------|
|------------------------|-------------------|
|
|  H        +E   E  E  E    H        H
|------------------------|-------------------|
|------------------------|-------------------|
|------------------------|-------------------|
|------------------------|-------------------|
|-17-------(17)-17-15-14-|-12-------11-------|
|------------------------|-------------------|

   E E E E   E  E   E     E    E E   E     E  E  E  E  E
|---------------------------|-----------------------0----|
|---------------------------|--------------------1-----1-|
|----2---2------2---------2-|--2--------------2----------|
|---------------------------|--------------2-------------|
|---------------------------|----0---3-------------------|
|---------------------------|----------------------------|
|
|  H        +Q     +S  S  E    Q    +S  S  E  E  E  E  E
|---------------------------|----------------------------|
|---------------------------|----------------------------|
|---------------------------|-14---(14)---14-14-14-13-14-|
|------------------------14-|----------------------------|
|-12-------(12)---(12)------|----------------------------|
|---------------------------|----------------------------|

   E E   E     E  E E E E    E E  E E  E E  E E
|-------------------------|---------------------|
|--0--------------0-----0-|--1------1---------1-|
|--------------1------1---|-------2---------2---|
|--------2----------2-----|----2---------3------|
|----2--------------------|------------3--------|
|-------------------------|---------------------|
|
|  Q    +S  S  E  H          Q    Q    Q    Q
|-------------------------|---------------------|
|-12---(12)---------------|-13------------------|
|-------------13----------|------14-------------|
|----------------14-------|---------------------|
|-------------------------|-----------15---17---|
|-------------------------|---------------------|

   E E E E   H                E E   E     E  E  E  E  E
|--------------------------|-----------------------------|
|--------------------------|-----------------------------|
|----1---1---1-------------|----2---------2-----2-----2--|
|--------------------------|-----------------------------|
|--------------------------|-----------------------------|
|--------------------------|-----------------------------|
|
|  H        +Q    +S  S  E    Q    +S  S  E  E  E  E  E
|--------------------------|-----------------------------|
|--------------------------|-----------------------------|
|--------------------------|-----------------------------|
|--------------------------|-19---(19)---21-22-21-19-----|
|-19-------(19)--(19)---19-|-------------------------19--|
|--------------------------|-----------------------------|

   E  E   E     E  E E  E  E   E E  E     E E E E  E
|----------------------------|-----------------------|
|----------------------------|-----------------------|
|-----2---------2----2-----2-|---2--------2---1----1-|
|----------------------------|-----------------------|
|----------------------------|-----------------------|
|----------------------------|-----------------------|
|
|  E  E  +S  S  E  Q    E  E   Q   +S  S  E E E E  E
|----------------------------|-----------------------|
|----------------------12-10-|-----------------------|
|-----------------14---------|-9---(9)---10-9-7------|
|--------------15------------|------------------9-10-|
|-17-17-(17)-----------------|-----------------------|
|----------------------------|-----------------------|

   E E E E   H        E E E E  E E E E
|------------------|-------------------|
|------------------|-------------------|
|----2---2---2-----|----2---2----2---2-|
|------------------|-------------------|
|------------------|-------------------|
|------------------|-------------------|
|
|  H        +H        H        H
|------------------|-------------------|
|------------------|-------------------|
|------------------|-------------------|
|------------------|-14----------------|
|-12-------(12)----|----------15-------|
|------------------|-------------------|

   E E E E  E E E E    E E E E E E E  E
|-------------------|-------------------|
|-------------------|-------------------|
|----1---1----1---1-|----2---2---2----2-|
|-------------------|-------------------|
|-------------------|-------------------|
|-------------------|-------------------|
|
|  H        H          E E E E E E E  E
|-------------------|-------------------|
|-------------------|-------------------|
|-------------------|----1-2-4-5--------|
|-------------------|------------7-9-10-|
|-17----------------|-------------------|
|----------19-------|-20----------------|

   E E E E  E E E E   E E E E  E  E E  E
|-------------------|--------------------|
|-------------0---0-|--------------------|
|----1---1----------|---2---2-----2----2-|
|-------------------|--------------------|
|-------------------|--------------------|
|-------------------|--------------------|
|
|  H        H         H       +E  E E  E
|-------------------|--------------------|
|-------------------|--------------------|
|-------------------|-9-------(9)--------|
|-12----------------|-------------7-9-10-|
|----------11-------|--------------------|
|-------------------|--------------------|

   E E E E   E   E  E E   E E E E E E E E
|-----------------------|-----------------|
|-----------------------|-----------------|
|----1---1-------1----1-|---2---2---4---4-|
|-----------------------|-----------------|
|-----------------------|-----------------|
|-----------------------|-----------------|
|
|  H        +E   E  E E   H       H
|-----------------------|-----------------|
|-----------------------|-----------------|
|-----------------------|-----------------|
|-12-------(12)-12-10-9-|-7-------6-------|
|-----------------------|-----------------|
|-----------------------|-----------------|

  E E E E  E  E  E    E   E E  E    E E E E E
|-----------------------|-----------------0---|
|-----------------------|---------------1---1-|
|---2---2-----2-------2-|-2-----------2-------|
|-----------------------|-----------2---------|
|-----------------------|---0--3--------------|
|-----------------------|---------------------|
|
| H       +Q    +S  S E   Q   +S  S E E E E E
|-----------------------|-5---(5)---5-5-5-4-5-|
|---------------------5-|---------------------|
|-----------------------|---------------------|
|-7-------(7)---(7)-----|---------------------|
|-----------------------|---------------------|
|-----------------------|---------------------|

  E E  E    E E E E E   E E  E E  E E  E E
|---------------------|--------------------|
|-0-----------0-----0-|-1------1---------1-|
|-----------1-----1---|------2---------2---|
|------2--------2-----|---2---------3------|
|---2-----------------|-----------3--------|
|---------------------|--------------------|
|
| Q   +S  S E H         Q    Q    Q    Q
|-7---(7)-------------|-8------------------|
|-----------9---------|-----10-------------|
|-------------9-------|--------------------|
|---------------------|----------10---12---|
|---------------------|--------------------|
|---------------------|--------------------|

   E E E E   H                E E   E     E  E  E  E E
|--------------------------|----------------------------|
|--------------------------|----------------------------|
|----1---1---1-------------|----2---------2-----2----2--|
|--------------------------|----------------------------|
|--------------------------|----------------------------|
|--------------------------|----------------------------|
|
|  H        +Q    +S  S  E    Q    +S  S  E  E  E  E E
|--------------------------|----------------------------|
|--------------------------|-------------12-13-12-10----|
|--------------------------|-14---(14)---------------9--|
|-14-------(14)--(14)---14-|----------------------------|
|--------------------------|----------------------------|
|--------------------------|----------------------------|

  E E  E    E E E E E   E E  E    E E E E E   E E E E  H
|---------------------|---------------------|----------------|
|---------------------|---------------------|----------------|
|---2-------2---2---2-|---2-------2---1---1-|---2---2--2-----|
|---------------------|---------------------|----------------|
|---------------------|---------------------|----------------|
|---------------------|---------------------|----------------|
|
| E E +S  S E Q   E E   Q   +S  S E E E E E   H       +H
|-------------5---7-5-|---------------------|----------------|
|-----------6---------|-5---(5)---6-5-3-----|----------------|
|-7-7-(7)-------------|-----------------4-5-|----------------|
|---------------------|---------------------|-7-------(7)----|
|---------------------|---------------------|----------------|
|---------------------|---------------------|----------------|

  E S S E S S S  S S S S S S S   E S S E S S E E E E
|------------------------------|---------------------|
|---5-5---6-8-6--8-------------|---5-5---------------|
|-2-------------10-9-7-5-4-----|---------------------|
|--------------------------6---|-7-------7-9-7-6---6-|
|-------7--------------------7-|-------7---------7---|
|------------------------------|---------------------|

  Gtrs I, V
  E S S E S S S  S S S S S S S   E S S E S S E E E E   E E E E E E E E
|------------------------------|---------------------|------------------|
|---5-5---6-8-6--8-------------|---5-5---------------|------------------|
|---------------10-9-7-5-4-----|---------------------|------------------|
|-7------------------------6---|-7-------7-9-7-6---6-|---7---7---7---7--|
|-------7--------------------7-|-------7---------7---|------------------|
|------------------------------|---------------------|------------------|
|
| Gtrs III, VI
| W                              W                     H       H
|------------------------------|---------------------|------------------|
|------------------------------|---------------------|-5----------------|
|------------------------------|---------------------|---------5--------|
|------------------------------|---------------------|------------------|
|------------------------------|---------------------|------------------|
|------------------------------|---------------------|------------------|

  E E E E E E E E   E E E E  E  E  E  E
|-----------------|---------------------|
|-----------------|---------------------|
|-----------------|---------------------|
|---6---6---6---6-|---7---7-----7-----7-|
|-----------------|---------------------|
|-----------------|---------------------|
|
| H       H         E E E E  E  E  E  E
|-----------------|---------------------|
|-3---------------|---------------------|
|---------4-------|-5-------------------|
|-----------------|---6-7-9-10----------|
|-----------------|------------12-14-15-|
|-----------------|---------------------|

   E E E E  E E E E    E E E E   E   E  E  E
|-------------------|------------------------|
|-------------------|------------------------|
|-------------4---4-|----2---2-------2-----2-|
|----6---6----------|------------------------|
|-------------------|------------------------|
|-------------------|------------------------|
|
|  H        H          H        +E   E  E  E
|-------------------|------------------------|
|-------------------|------------------------|
|-------------------|------------------------|
|-------------------|-14-------(14)----------|
|-17----------------|---------------12-14-15-|
|----------16-------|------------------------|

   E E E E   E   E  E  E    E E E E  E E E E
|------------------------|-------------------|
|------------------------|-------------------|
|----1---1-------1-----1-|----2---2----4---4-|
|------------------------|-------------------|
|------------------------|-------------------|
|------------------------|-------------------|
|
|  H        +E   E  E  E    H        H
|------------------------|-------------------|
|------------------------|-------------------|
|------------------------|-------------------|
|------------------------|-------------------|
|-17-------(17)-17-15-14-|-12-------11-------|
|------------------------|-------------------|

   E E E E   E  E   E     E    E E   E     E  E  E  E  E
|---------------------------|-----------------------0----|
|---------------------------|--------------------1-----1-|
|----2---2------2---------2-|--2--------------2----------|
|---------------------------|--------------2-------------|
|---------------------------|----0---3-------------------|
|---------------------------|----------------------------|
|
|  H        +Q     +S  S  E    Q    +S  S  E  E  E  E  E
|---------------------------|----------------------------|
|---------------------------|----------------------------|
|---------------------------|-14---(14)---14-14-14-13-14-|
|------------------------14-|----------------------------|
|-12-------(12)---(12)------|----------------------------|
|---------------------------|----------------------------|

   E E   E     E  E E E E    E E  E E  E E  E E
|-------------------------|---------------------|
|--0--------------0-----0-|--1------1---------1-|
|--------------1------1---|-------2---------2---|
|--------2----------2-----|----2---------3------|
|----2--------------------|------------3--------|
|-------------------------|---------------------|
|
|  Q    +S  S  E  H          Q    Q    Q    Q
|-------------------------|---------------------|
|-12---(12)---------------|-13------------------|
|-------------13----------|------14-------------|
|----------------14-------|---------------------|
|-------------------------|-----------15---17---|
|-------------------------|---------------------|

   E E E E   H                E E   E     E  E  E  E  E
|--------------------------|-----------------------------|
|--------------------------|-----------------------------|
|----1---1---1-------------|----2---------2-----2-----2--|
|--------------------------|-----------------------------|
|--------------------------|-----------------------------|
|--------------------------|-----------------------------|
|
|  H        +Q    +S  S  E    Q    +S  S  E  E  E  E  E
|--------------------------|-----------------------------|
|--------------------------|-----------------------------|
|--------------------------|-----------------------------|
|--------------------------|-19---(19)---21-22-21-19-----|
|-19-------(19)--(19)---19-|-------------------------19--|
|--------------------------|-----------------------------|

   E  E   E     E  E E  E  E   E E  E     E E E E  E
|----------------------------|-----------------------|
|----------------------------|-----------------------|
|-----2---------2----2-----2-|---2--------2---1----1-|
|----------------------------|-----------------------|
|----------------------------|-----------------------|
|----------------------------|-----------------------|
|
|  E  E  +S  S  E  Q    E  E   Q   +S  S  E E E E  E
|----------------------------|-----------------------|
|----------------------12-10-|-----------------------|
|-----------------14---------|-9---(9)---10-9-7------|
|--------------15------------|------------------9-10-|
|-17-17-(17)-----------------|-----------------------|
|----------------------------|-----------------------|

   E E E E   H        E E E E  E E E E
|------------------|-------------------|
|------------------|-------------------|
|----2---2---2-----|----2---2----2---2-|
|------------------|-------------------|
|------------------|-------------------|
|------------------|-------------------|
|
|  H        +H        H        H
|------------------|-------------------|
|------------------|-------------------|
|------------------|-------------------|
|------------------|-14----------------|
|-12-------(12)----|----------15-------|
|------------------|-------------------|

   E E E E  E E E E    E E E E E E E  E
|-------------------|-------------------|
|-------------------|-------------------|
|----1---1----1---1-|----2---2---2----2-|
|-------------------|-------------------|
|-------------------|-------------------|
|-------------------|-------------------|
|
|  H        H          E E E E E E E  E
|-------------------|-------------------|
|-------------------|-------------------|
|-------------------|----1-2-4-5--------|
|-------------------|------------7-9-10-|
|-17----------------|-------------------|
|----------19-------|-20----------------|

   E E E E  E E E E   E E E E  E  E E  E
|-------------------|--------------------|
|-------------0---0-|--------------------|
|----1---1----------|---2---2-----2----2-|
|-------------------|--------------------|
|-------------------|--------------------|
|-------------------|--------------------|
|
|  H        H         H       +E  E E  E
|-------------------|--------------------|
|-------------------|--------------------|
|-------------------|-9-------(9)--------|
|-12----------------|-------------7-9-10-|
|----------11-------|--------------------|
|-------------------|--------------------|

   E E E E   E   E  E E   E E E E E E E E
|-----------------------|-----------------|
|-----------------------|-----------------|
|----1---1-------1----1-|---2---2---4---4-|
|-----------------------|-----------------|
|-----------------------|-----------------|
|-----------------------|-----------------|
|
|  H        +E   E  E E   H       H
|-----------------------|-----------------|
|-----------------------|-----------------|
|-----------------------|-----------------|
|-12-------(12)-12-10-9-|-7-------6-------|
|-----------------------|-----------------|
|-----------------------|-----------------|

  E E E E  E  E  E    E   E E  E    E E E E E
|-----------------------|-----------------0---|
|-----------------------|---------------1---1-|
|---2---2-----2-------2-|-2-----------2-------|
|-----------------------|-----------2---------|
|-----------------------|---0--3--------------|
|-----------------------|---------------------|
|
| H       +Q    +S  S E   Q   +S  S E E E E E
|-----------------------|-5---(5)---5-5-5-4-5-|
|---------------------5-|---------------------|
|-----------------------|---------------------|
|-7-------(7)---(7)-----|---------------------|
|-----------------------|---------------------|
|-----------------------|---------------------|

  E E  E    E E E E E   E E  E E  E E  E E
|---------------------|--------------------|
|-0-----------0-----0-|-1------1---------1-|
|-----------1-----1---|------2---------2---|
|------2--------2-----|---2---------3------|
|---2-----------------|-----------3--------|
|---------------------|--------------------|
|
| Q   +S  S E H         Q    Q    Q    Q
|-7---(7)-------------|-8------------------|
|-----------9---------|-----10-------------|
|-------------9-------|--------------------|
|---------------------|----------10---12---|
|---------------------|--------------------|
|---------------------|--------------------|

   E E E E   H                E E   E     E  E  E  E E
|--------------------------|----------------------------|
|--------------------------|----------------------------|
|----1---1---1-------------|----2---------2-----2----2--|
|--------------------------|----------------------------|
|--------------------------|----------------------------|
|--------------------------|----------------------------|
|
|  H        +Q    +S  S  E    Q    +S  S  E  E  E  E E
|--------------------------|----------------------------|
|--------------------------|-------------12-13-12-10----|
|--------------------------|-14---(14)---------------9--|
|-14-------(14)--(14)---14-|----------------------------|
|--------------------------|----------------------------|
|--------------------------|----------------------------|

  E E  E    E E E E E   E E  E    E E E E E   E E E E  H
|---------------------|---------------------|----------------*|
|---------------------|---------------------|----------------*|
|---2-------2---2---2-|---2-------2---1---1-|---2---2--2-----*|
|---------------------|---------------------|----------------*|
|---------------------|---------------------|----------------*|
|---------------------|---------------------|----------------*|
|
| E E +S  S E Q   E E   Q   +S  S E E E E E   H       +H
|-------------5---7-5-|---------------------|----------------*|
|-----------6---------|-5---(5)---6-5-3-----|----------------*|
|-7-7-(7)-------------|-----------------4-5-|----------------*|
|---------------------|---------------------|-7-------(7)----*|
|---------------------|---------------------|----------------*|
|---------------------|---------------------|----------------*|
Login or Register to remove this ad.

4 comments on Tetoroika

hmm wasnt expecting

hmm wasnt expecting something that detailed. Nice job tabbing. Really accurate, thanks for doing my request.

i know man im sorry i was

i know man im sorry i was trying to do my best to make it easy but every time i did... it just didnt sound the same... good luck playing it tho... im sure after enough pratice it shouldnt be all that hard

also ... i forgot to say you

also ... i forgot to say you see where "8" is played on the "B" string and then 10 is played on "G" string (lol i just said G string haha) well u can skip ten if u want i just added that for people who wanted a more a fuller effect... good luck :D

thanks ill try my best and i

thanks ill try my best and i understand why they are towards the top. I'll just have to try harder lol