Ken's Stage (Super Street Fighter 2) Guitar Tab

Submitted: Oct 03, 2007 by nozzie

5
Average: 5 (2 votes)
Download | Listen
Game: Super Street Fighter 2
Composer(s): Unknown
Style: 2 or more instruments, Transcription

AutoScroll: Slow | Medium | Fast

Guitar 1

                                  Kens Theme                                    

                                                        Arr. Zach Novak / Nozzie
Lead Guitar

     W                   W                   W
E||-------------------|-------------------|-------------------|
B||-------------------|-------------------|-------------------|
G||-------------------|-------------------|-------------------|
D||-------------------|-------------------|-------------------|
A||-------------------|-------------------|-------------------|
E||-------------------|-------------------|-------------------|

  W                   W                   W                   W
-------------------|-------------------|-------------------|-------------------|
-------------------|-------------------|-------------------|-------------------|
-------------------|-------------------|-------------------|-------------------|
-------------------|-------------------|-------------------|-------------------|
-------------------|-------------------|-------------------|-------------------|
-------------------|-------------------|-------------------|-------------------|

  W                   Q    Q    Q    E  E     E  E  Q.     E  E  E
-------------------|-----------------2--0--|--L---------------------|
-------------------|------------2----------|-----4--2------0-----2--|
-------------------|-------1---------------|------------------------|
-------------------|-----------------------|------------------------|
-------------------|-----------------------|------------------------|
-------------------|-----------------------|------------------------|

  Q    Q    Q    E  E     E  E  Q.     E  E  E     Q    Q    Q    E  E
-----------------2--0--|--L---------------------|-----------------2--4--|
------------2----------|-----4--2------0-----2--|------------2----------|
-------1---------------|------------------------|-------1---------------|
-----------------------|------------------------|-----------------------|
-----------------------|------------------------|-----------------------|
-----------------------|------------------------|-----------------------|

  E  E  E  Q    E  E  E     Q    E  Q.     Q       Q    E  H        E
--L--5--4--2----0--2--4--|--L-------2------0----|----------------------|
-------------------------|----------------------|--4----2--1--------L--|
-------------------------|----------------------|----------------------|
-------------------------|----------------------|----------------------|
-------------------------|----------------------|----------------------|
-------------------------|----------------------|----------------------|

  Q    Q    Q    E  E     E  E  Q.     E  E  E     Q    Q    Q    E  E
-----------------2--0--|--L---------------------|-----------------2--0--|
------------2----------|-----4--2------0-----2--|------------2----------|
-------1---------------|------------------------|-------1---------------|
-----------------------|------------------------|-----------------------|
-----------------------|------------------------|-----------------------|
-----------------------|------------------------|-----------------------|

  E  E  Q.     E  E  E     Q    Q    Q    E  E     E  E  E  Q    E  E  E
--L---------------------|-----------------2--4--|--L--5--4--2----0-----4--|
-----4--2------0-----2--|------------2----------|-------------------4-----|
------------------------|-------1---------------|-------------------------|
------------------------|-----------------------|-------------------------|
------------------------|-----------------------|-------------------------|
------------------------|-----------------------|-------------------------|

  Q    H        Q       Q    E  H        E     Q.     H        E
-------2--------0----|-------0--------------|---------------------|
---------------------|--4-------4--------L--|--2------4--------L--|
---------------------|----------------------|---------------------|
---------------------|----------------------|---------------------|
---------------------|----------------------|---------------------|
---------------------|----------------------|---------------------|

  Q.     Q    E  E  E     Q.     H        E     H        Q    E  E
--0------2----0--------|---------4--------L--|--L--------4----2--4--|
-----------------4--2--|---------------------|----------------------|
-----------------------|--2------------------|----------------------|
-----------------------|---------------------|----------------------|
-----------------------|---------------------|----------------------|
-----------------------|---------------------|----------------------|

  W                   H.           E  E     Q    H.
--L----------------|--L------------------|--------------------|
-------------------|------------------2--|--L----4------------|
-------------------|---------------------|--------------------|
-------------------|---------------------|--------------------|
-------------------|---------------------|--------------------|
-------------------|---------------------|--------------------|

  Q.     Q    E  E  E     Q.     H        E     H.           E  E
--0------2----0--------|---------4--------L--|--L------------2--4--|
-----------------4-----|---------------------|---------------------|
--------------------2--|--L------------------|---------------------|
-----------------------|---------------------|---------------------|
-----------------------|---------------------|---------------------|
-----------------------|---------------------|---------------------|

  W                   W                   Q    Q    Q    E  E
--L----------------|--L----------------|-----------------2--4--|
-------------------|-------------------|------------2----------|
-------------------|-------------------|-------1---------------|
-------------------|-------------------|-----------------------|
-------------------|-------------------|-----------------------|
-------------------|-------------------|-----------------------|

  Q    E  E  E  E  E  E     Q    E  E  E  E  E  E     Q.     E  E  E  Q
--L----2--0-----------0--|--L----------------------|---------------0-------|
----------------4--------|-------4--2-----0-----2--|--L------2--4----------|
-------------------------|-------------------------|-----------------------|
-------------------------|-------------------------|-----------------------|
-------------------------|-------------------------|-----------------------|
-------------------------|-------------------------|-----------------------|

  Q    Q    Q    E  E     E  E  Q    Q    E  E     Q    Q    Q    E  E
-------2----0-------2--|-----2--0---------0-----|--------------------4--|
-----------------4-----|-------------4-------4--|--L----2----1----2-----|
-----------------------|------------------------|-----------------------|
-----------------------|------------------------|-----------------------|
-----------------------|------------------------|-----------------------|
-----------------------|------------------------|-----------------------|

  E  E  E  E  E  E  E  E     Q    Q    Q    E  E     E  E  E  E  E  Q    E
-----4--4--4--4--4-----2--|--4----2----0----2--0--|--L-------------------0--|
--------------------------|-----------------------|-----4-----2-------------|
--------------------------|-----------------------|-----------------1-------|
--------------------------|-----------------------|-------------------------|
--------------------------|-----------------------|-------------------------|
--------------------------|-----------------------|-------------------------|

  Q    E  E  E  E  E  E     Q.     E  E  Q.        Q    Q    Q    E  E
--L----------------------|---------------0------|-------2----4----5--4--|
-------4--2-----0-----2--|--L------2--4---------|-----------------------|
-------------------------|----------------------|-----------------------|
-------------------------|----------------------|-----------------------|
-------------------------|----------------------|-----------------------|
-------------------------|----------------------|-----------------------|

  E  E  Q    Q    E  E     Q    H.              Q    H.
-----4--2----0----------|--------------------|--------------------||
------------------1--4--|--L----2------------|--L-----------------||
------------------------|--------------------|--------------------||
------------------------|--------------------|--------------------||
------------------------|--------------------|--------------------||
------------------------|--------------------|--------------------||

Duration Legend
---------------
W - whole
H - half
Q - quarter
E - 8th
S - 16th
T - 32nd
X - 64th
. - note dotted
|-n-|  - n-tuplets

Guitar 2

                                  Kens Theme                                    

                                                        Arr. Zach Novak / Nozzie
Rythem Guitar

     W                   Q    E  E  Q.     E     E  Q.     H
E||-------------------|-----------------------|---------------------|
B||-------------------|-----------------------|---------------------|
G||-------------------|-----------------------|---------------------|
D||--2----------------|-----------------------|---------------------|
A||--4----------------|--L-------2--2------2--|--0--0------0--------|
E||-------------------|----------4--4------4--|---------------------|

  H.           E  E     E  E  E  E  E  E  E  E     E  E  E  E  E  E  E  E
---------------------|--------------------------|--------------------------|
---------------------|--------------------------|--------------------------|
---------------------|--------------------------|--------------------------|
---------------------|--------------------------|--------------------------|
--L---------------4--|-----4--4--4--4--4--4--4--|--4--4--4--4--4--4--4--2--|
------------------2--|--L--2--2--2--2--2--2--2--|--2--2--2--2--2--2--2--4--|

  E  E  E  E  E  E  E  E     E  E  E  E  E  E  E  E
--------------------------|--------------------------|
--------------------------|--------------------------|
--------------------------|--------------------------|
--------------------------|-----------------------2--|
-----2--2--2--2--2--2--2--|--2--2--2--2--2--2--2--4--|
--L--4--4--4--4--4--4--4--|--4--4--4--4--4--4--4-----|

  E  E  E  E  E  E  E  E     E  E  E  E  E  E  E  E
--------------------------|--------------------------|
--------------------------|--------------------------|
--------------------------|--------------------------|
-----2--2--2--2--2--2--2--|--2--2--2--2--2--2--2--2--|
--L--4--4--4--4--4--4--4--|--4--4--4--4--4--4--4--0--|
--------------------------|--------------------------|

  E  E  E  E  E  E  E  E     E  E  E  E  E  E  E  E
--------------------------|--------------------------|
--------------------------|--------------------------|
--------------------------|--------------------------|
-----2--2--2--2--2--2--2--|--2--2--2--2--2--2--2-----|
--L--0--0--0--0--0--0--0--|--0--0--0--0--0--0--0--4--|
--------------------------|-----------------------2--|

  E  E  E  E  E  E  E  E     E  E  E  E  Q    E  E     E  E  E  E  E  E  E  E
--------------------------|-------------------------|--------------------------|
--------------------------|-------------------------|--------------------------|
--------------------------|-------------------------|--------------------------|
--------------------------|-------------------------|--------------------------|
-----4--4--4--4--4--4--4--|--4--4--4--4--4-------2--|-----2--2--2--2--2--2--2--|
--L--2--2--2--2--2--2--2--|--2--2--2--2--2-------4--|--L--4--4--4--4--4--4--4--|

  E  E  E  E  E  E  E  E     E  E  E  E  E  E  E  E
--------------------------|--------------------------|
--------------------------|--------------------------|
--------------------------|--------------------------|
-----------------------2--|-----2--2--2--2--2--2--2--|
--2--2--2--2--2--2--2--4--|--L--4--4--4--4--4--4--4--|
--4--4--4--4--4--4--4-----|--------------------------|

  E  E  E  E  E  E  E  E     E  E  E  E  E  E  E  E
--------------------------|--------------------------|
--------------------------|--------------------------|
--------------------------|--------------------------|
--2--2--2--2--2--2--2--2--|-----2--2--2--2--2--2--2--|
--4--4--4--4--4--4--4--0--|--L--0--0--0--0--0--0--0--|
--------------------------|--------------------------|

  E  E  E  E  E  E  E  E     E  E  E  E  E  E  E  E     E  E  E  E  Q    E  E
--------------------------|--------------------------|-------------------------|
--------------------------|--------------------------|-------------------------|
--------------------------|--------------------------|-------------------------|
--2--2--2--2--2--2--2-----|--------------------------|-------------------------|
--0--0--0--0--0--0--0--4--|-----4--4--4--4--4--4--4--|--4--4--4--4--4-------2--|
-----------------------2--|--L--2--2--2--2--2--2--2--|--2--2--2--2--2-------4--|

  W                   E  E  E  E  Q    Q       W
-------------------|------------------------|-------------------|
-------------------|------------------------|-------------------|
-------------------|------------------------|-------------------|
-------------------|------------------------|--2----------------|
-------------------|-----2--2--2--2---------|--0----------------|
--L----------------|-----4--4--4--4---------|-------------------|

  W                   W                   H.           E  E
-------------------|-------------------|---------------------|
-------------------|-------------------|---------------------|
-------------------|-------------------|---------------------|
-------------------|-------------------|------------------2--|
--L----------------|--4----------------|------------------4--|
-------------------|--2----------------|--L------------L-----|

  E  E  E  E  E  E  E  E     E  E  E  E  E  E  E  E     W
--------------------------|--------------------------|-------------------|
--------------------------|--------------------------|-------------------|
--------------------------|--------------------------|-------------------|
-----2--2--2--2--2--2--2--|--2--2--2--2--2--2--2--2--|-------------------|
--L--4--4--4--4--4--4--4--|--4--4--4--4--4--4--4--0--|--L----------------|
--------------------------|--------------------------|-------------------|

  H.           E  E     W                   H.           E  E
---------------------|-------------------|---------------------|
---------------------|-------------------|---------------------|
---------------------|-------------------|---------------------|
------------------4--|-------------------|---------------------|
--L------------L--2--|--L----------------|--L------------L--2--|
---------------------|-------------------|------------------4--|

  H        E  E  E  E     E  E  E  E  E  E  E  E     E  E  E  E  E  E  E  E
-----------------------|--------------------------|--------------------------|
-----------------------|--------------------------|--------------------------|
-----------------------|--------------------------|--------------------------|
-----------------------|-----------------------2--|-----2--2--2--2--2--2--2--|
--------------2--2--2--|--2--2--2--2--2--2--2--4--|--L--4--4--4--4--4--4--4--|
--L-----------4--4--4--|--4--4--4--4--4--4--4-----|--------------------------|

  E  E  E  E  E  E  E  E     E  E  E  E  E  E  E  E
--------------------------|--------------------------|
--------------------------|--------------------------|
--------------------------|--------------------------|
--2--2--2--2--2--2--2--2--|-----2--2--2--2--2--2--2--|
--4--4--4--4--4--4--4--0--|--L--0--0--0--0--0--0--0--|
--------------------------|--------------------------|

  E  E  E  E  E  E  E  E     E  E  E  E  E  E  E  E     E  E  E  E  Q    E  E
--------------------------|--------------------------|-------------------------|
--------------------------|--------------------------|-------------------------|
--------------------------|--------------------------|-------------------------|
--2--2--2--2--2--2--2-----|--------------------------|-------------------------|
--0--0--0--0--0--0--0--0--|-----4--4--4--4--4--4--4--|--4--4--4--4--4-------2--|
-----------------------2--|--L--2--2--2--2--2--2--2--|--2--2--2--2--2-------4--|

  E  E  E  E  E  E  E  E     E  E  E  E  E  E  E  E
--------------------------|--------------------------|
--------------------------|--------------------------|
--------------------------|--------------------------|
--------------------------|-----------------------2--|
-----2--2--2--2--2--2--2--|--2--2--2--2--2--2-----4--|
--L--4--4--4--4--4--4--4--|--4--4--4--4--4--4--------|

  E  E  E  E  E  E  E  E     E  E  E  E  E  E  E  E
--------------------------|--------------------------|
--------------------------|--------------------------|
--------------------------|--------------------------|
-----2--2--2--2--2--2--2--|--2--2--2--2--2--2--2--2--|
--L--4--4--4--4--4--4--4--|--4--4--4--4--4--4--4--0--|
--------------------------|--------------------------|

  E  E  E  E  E  E  E  E     E  E  E  E  E  E  E  E
--------------------------|--------------------------|
--------------------------|--------------------------|
--------------------------|--------------------------|
-----2--2--2--2--2--2--2--|--2--2--2--2--2--2--2-----|
--L--0--0--0--0--0--0--0--|--0--0--0--0--0--0--0--2--|
--------------------------|-----------------------0--|

  E  E  E  E  E  E  E  E     E  E  E  E  E  E  E  E     Q    H.
--------------------------|--------------------------|--------------------|
--------------------------|--------------------------|--------------------|
--------------------------|--------------------------|--------------------|
-----4--4--4--4--4--4-----|--------------------------|--------------------|
--L--2--2--2--2--2--2--3--|--L--2--2--2--2--2--2--4--|-------4------------|
-----------------------4--|-----4--4--4--4--4--4--4--|-------4------------|

  W
-------------------||
-------------------||
-------------------||
-------------------||
--L----------------||
-------------------||

Duration Legend
---------------
W - whole
H - half
Q - quarter
E - 8th
S - 16th
T - 32nd
X - 64th
. - note dotted
|-n-|  - n-tuplets
Login or Register to remove this ad.

4 comments on Ken's Stage

What Does L mean? Asked a

What Does L mean? Asked a firend who is pretty alrite on a guitar but he didnĀ“t know, seems like an awsome tab tho realyl wanna play it

let ring

let ring

usually "let ring" is just

usually "let ring" is just l.r. =7

is it just me or does the

is it just me or does the rhythm section just sound wrong? The chords sound atrocious.