Ads

Ridley fight (Super Metroid) Guitar Tab

Submitted: Jan 19, 2009 by Juja (Last updated: Aug 29, 2009)

5
Average: 5 (4 votes)
Download | Listen
Game: Super Metroid
Composer(s): Kenji Yamamoto, Minako Hamano
Style: Transcription
Series: Metroid

AutoScroll: Slow | Medium | Fast
Game: Super Metroid
Song: Ridley fight
Composed by: Kenji Yamamoto
Tabbed by: Not So Great Juja (Paul Horses)

Key:
~ = vibrato
p = pull-off
h = hammer-on
b = bend
/ = slide
pm = palm-mute
tr = tremolo picking


e|------------------------------------------------| 
B|------------------------------------------------| 
G|-5--5--6-3---5--5--6-3---5--5--6-3---5--5--6-3--| 
D|-3--3--4-1---3--3--4-1---3--3--4-1---3--3--4-1--| 
A|-3--3--4-1---3--3--4-1---3--3--4-1---3--3--4-1--| 
E|------------------------------------------------| 



e|---------------------------5~--6--7-| 
B|-7---4------------8~---7------------| 
G|---5------------5--------7----------| 
D|-------5~---6-8---------------------| 
A|------------------------------------| 
E|------------------------------------| 



e|------------------------------------------------| 
B|------------------------------------------------| 
G|-8--8--9-6---8--8--9-6---8--8--9-6---8--8--9-6--| 
D|-6--6--7-4---6--6--7-4---6--6--7-4---6--6--7-4--| 
A|-6--6--7-4---6--6--7-4---6--6--7-4---6--6--7-4--| 
E|------------------------------------------------| 



e|------------------------------------------------| 
B|------------------------------------------------| 
G|-5--5--6-3---5--5--6-3---5--5--6-3---5--5--6-3--| 
D|-3--3--4-1---3--3--4-1---3--3--4-1---3--3--4-1--| 
A|-3--3--4-1---3--3--4-1---3--3--4-1---3--3--4-1--| 
E|------------------------------------------------| 



e|--------------------------------------------------------| 
B|-11~-10h11p10-----10-11~-10h11p10----10-14~-13h14p13----| 
G|--------------11~-----------------11-----------------14-| 
D|--------------------------------------------------------| 
A|--------------------------------------------------------| 
E|--------------------------------------------------------| 



e|-----------------14~-13h14p13-------14-13-------14-13-| 
B|-13-16~-15h16p15--------------16-15-------16-15-------| 
G|------------------------------------------------------| 
D|------------------------------------------------------| 
A|------------------------------------------------------| 
E|------------------------------------------------------| 


Also, it sounds pretty cool if you play some muted/dead notes
inbetween the main parts of the song. Like this:


e|------------------------------------------------------------------------| 
B|------------------------------------------------------------------------| 
G|-5-xx-5-xx-6-x-3-x-5-xx-5-xx-6-x-3-x-5-xx-5-xx-6-x-3-xx-5-xx-5-xx-6-x-3-| 
D|-3-xx-3-xx-4-x-1-x-3-xx-3-xx-4-x-1-x-3-xx-3-xx-4-x-1-xx-3-xx-3-xx-4-x-1-| 
A|-3-xx-3-xx-4-x-1-x-3-xx-3-xx-4-x-1-x-3-xx-3-xx-4-x-1-xx-3-xx-3-xx-4-x-1-| 
E|------------------------------------------------------------------------| 

I didn't tab the rest of the song like that because it can look
somewhat confusing.
Login or Register to remove this ad.