Ads

Brinstar Red (Super Metroid) Guitar Tab

Submitted: Jan 19, 2009 by Juja (Last updated: Dec 30, 2009)

5
Average: 5 (2 votes)
Download | Listen
Game: Super Metroid
Composer(s): Kenji Yamamoto, Minako Hamano
Style: 2 or more instruments, Transcription
Series: Metroid

AutoScroll: Slow | Medium | Fast
Game: Super Metroid
Song: Brinstar (red)
Composed by: Kenji Yamamoto
Tabbed by: Not So Great Juja (Paul Horses)

Key:
~ = vibrato
p = pull-off
h = hammer-on
b = bend
/ = slide
pm = palm-mute
tr = tremolo picking


This repeats for pretty much the whole song:

e|------------------------------| 
B|---------16----------14-------| 
G|-----13----------13-----------| 
D|-13----------13---------------| 
A|------------------------------| 
E|------------------------------| 


Every once in a while it plays this instead:


e|------------------------------| 
B|---------------------14-------| 
G|-----13--15------13-----------| 
D|-13----------13---------------| 
A|------------------------------| 
E|------------------------------| 


======================================================

Okay, now for the lead part of the song:


e|---------------------------------------------------| 
B|-16~-----------------------------------------------| 
G|---------------15-13-15~-----13-----------13-------| 
D|--------------------------------13-16~-------13~---| 
A|---------------------------------------------------| 
E|---------------------------------------------------| 



e|------------------------------------------14-------| 
B|-16~-----------------------------------------16~---| 
G|---------------15-13-15~-----13--------------------| 
D|--------------------------------13-16~-------------| 
A|---------------------------------------------------| 
E|---------------------------------------------------| 



e|----------------------------------------------| 
B|-16-14----------------------------------------| 
G|-------15-13-15----13-----------------13------| 
D|----------------16----13--------13-16---------| 
A|-----------------------------13---------------| 
E|----------------------------------------------| 



e|----------------------------------------------| 
B|-16-14----------------------------------------| 
G|-------15-13-15----13--------------15-13------| 
D|----------------16----13--------13------------| 
A|-----------------------------13---------------| 
E|----------------------------------------------| 



e|---------------------------------------------------------| 
B|-----------------------------------------------------14--| 
G|----13-15----13-15-13-------------13-15----13-15-13------| 
D|-16-------13-----------13------16-------13---------------| 
A|---------------------------------------------------------| 
E|---------------------------------------------------------| 



e|----------------------------------------| 
B|-16-14----------------------------------| 
G|-------15-13-15----15-13----------------| 
D|----------------16-------16-13-16----13-| 
A|----------------------------------16----| 
E|----------------------------------------| 


================================================================

The "ahh... ahh..." part would be played like this:

e|----------------------------| 
B|-16----16--------16----16---| 
G|----------------------------| 
D|-13----13--------13----13---| 
A|----------------------------| 
E|----------------------------| 


This would be the bass part:

G|----------------------------| 
D|----------------------------| 
A|----------------------------| 
D|-1----2----------1-----2----| 
Login or Register to remove this ad.

4 comments on Brinstar Red

Kick A$$!

5

I picked this one up pretty quickly. Pretty cool ,man!

Perfect!

5

In every way.
It's easy to learn and it's as accurate as it can get
Also it's a great song!

5/5

Cool, I'm glad you guys liked

Cool, I'm glad you guys liked it. I tried to keep this tab as simple as possible. Most of the parts just repeat, so I made short tabs for those parts rather than tabbing the same thing over and over.

Great

Loved this one. Brought back a lot of memories, thank you for tabbing this!