Ads

Various Super Mario World Themes (Super Mario World) Guitar Tab

Submitted: Oct 03, 2007 by Stamen47 (Last updated: Sep 20, 2009)

5
Average: 5 (5 votes)
Download | Listen
Game: Super Mario World
Composer(s): Koji Kondo
Style: Arrangement, Fingerstyle
Series: Mario

Click here for a video example.

AutoScroll: Slow | Medium | Fast
Various Themes
Super Mario World
Composed by Koji Kondo

Guitar
      S S E  S S E  E  Q    E     E  E  E  E  E  Q.
E||--------------------8----8--|--7----------------------||
B||----------------------------|-----3--3--3--3----------||
G||*--5-7-5--5-7-5--5----------|--------------3--4------*||
D||*----------------6----------|------------------------*||
A||----------6-----------------|--------5----------------||
E||---4---------------------4--|--3----------------------||

  E  E  E  E  E  E  Q       E  E  E  E  E  E  Q       E  E  E  E  E  E  E  E
-------------------------|-------------------------|-----------------------8--|
--6--4--4--6--4--4--6----|--5--3--3--5--3--3--5----|--6--4--4--6--4--4--6-----|
--3--------3--------3----|--2--------2--------2----|--3--------3--------3-----|
--4--------4--------4----|--3--------3--------3----|--4--------4--------4-----|
-------------------------|-------------------------|--------------------------|
-------------------------|-------------------------|--------------------------|

  E  H.           E     T T T T T T T T T T T T T T T T T T S E  Q
-----7---------------|------------------------------------------------|
---------------------|------------------------------------------------|
---------------------|------------------------------------------------|
--7------------------|------------------------------------------------|
--8------------------|------------------------------------------------|
---------------------|------------------------------------------------|

  Q    E  E  Q    Q        Q     E   E    H             E.  S E  E  Q    Q
--5----------5---------|------------10-------------||-------------------------|
--6----6-----5----5----|---8----10------<>8--------||---5---5-5-----5---------|
--7-------7--3----3----|---9-----------------------||*--5---5-5-----5---------|
-------------5----5----|--10-----------------------||*-----------5-------5----|
-------------3---------|---8-----------------------||---3---------------------|
-----------------------|---------------------------||-------------------------|

  E  E  E  E  Q    Q       E.  S E  E  Q    Q       E  E  E  E  Q    Q
-----------3--5----3----|------------------------|-----------5--7----5----|
-----------5--6----5----|--6---6-6-----6---------|-----------6--8----6----|
--5--5--5---------------|--7---7-7-----7---------|--7--7--7---------------|
------------------------|-----------7-------7----|--0--0--0----------0----|
--3--3--3----------3----|--5---------------------|------------------------|
------------------------|------------------------|------------------------|

  E.  S E  E  Q    Q       E  E  E  E  H              E.  S S. S S. Q    Q
--0---0-0-----0---------|------------------------||---------------------------|
------------------------|--5--4--3--2------------||---------0----0------------|
--5---5-5-----5---------|--5--4--3--2--5--------*||*------0----2---------2----|
-----------5-------5----|--------------6--------*||*--------------------------|
--3---------------------|--3--2--1--0------------||---3-----3-------0----0----|
------------------------|--------------4---------||---------------------------|

  E.  S S. S S. Q    Q       E.  S S. S S. Q    Q       E.  E  E.  Q    Q
--------------------------|--------------------------|-----------------------|
--------1--0-1-------0----|--------0----0------------|--1--------------------|
------2-------------------|------0----2---------2----|--2---2----------------|
--0-----0-----------------|--------------------------|--0------3---2----0----|
--------------------------|--3-----3-------0----0----|-----------------------|
----------------3----3----|--------------------------|-------------3---------|

  E.  S S. S S. Q    Q       E.  S S. S S. Q    Q
--------------------------|--------------------------|
--------0----0------------|--------1--0-1-------0----|
------0----2---------2----|------2-------------------|
--------------------------|--0-----0-----------------|
--3-----3-------0----0----|--------------------------|
--------------------------|----------------3----3----|

  E.  S S. S S. Q    Q       E  S. E.  E  S T S. S S E  T
--------------------------|----------------------3-5-3-----||
--------0----0------------|--------------------------------||
------0----2---------2----|------------0------------------*||
--------------------------|--0--2--3----------------------*||
--3-----3-------0----0----|--------------------------------||
--------------------------|--------------------------------||

  W                   W                     E  S S E  S S E  E  E  E
-------------------|-------------------||----------0------0-----------|
-------------------|-------------------||----------1------1-----------|
-------------------|-------------------||*-----0-2----0-2-------------|
-------------------|-------------------||*-----2------2---------------|
-------------------|-------------------||---3----------------3--3--3--|
-------------------|-------------------||-----------------------------|

  E  S S E  S S E  E  E  E     E  S S E  S S E  E  E  E
---------1------1-----------|---------1------1-----------|
---------1------1-----------|---------3------3-----------|
-----0-2----0-2-------------|-----0-1----0-1-------------|
-----0------0---------------|-----0------0---------------|
--3----------------3--3--3--|--3----------------3--3--3--|
----------------------------|----------------------------|

  E  S S E  S S E  E  E  E     E  S S E  E  E  E  E   E
---------0------0-----------|---------------5-----5--13--|
---------1------1-----------|------------6-----6---------|
-----0-2----0-2-------------|-----7-6-7------------------|
-----2------2---------------|--0------------------0------|
--3----------------3--3--3--|----------------------------|
----------------------------|----------------------------|

   Q    Q     H             W                   W
--12---------10---------||-------------------|-------------------|
------------------------||-------------------|-------------------|
-----------------------*||-------------------|-------------------|
--------9--------------*||-------------------|-------------------|
--10--------------------||-------------------|-------------------|
------------------------||-------------------|-------------------|

  W                   W                     S S S S E  S E  S S S S S E
-------------------|-------------------||---4----------------------------|
-------------------|-------------------||---4----------------------------|
-------------------|-------------------||*--2----------------------------|
-------------------|-------------------||*-------------------------------|
-------------------|-------------------||-----------------------------6--|
-------------------|-------------------||-----0-0-0-0--0-0--0-0-0-0-0----|

  S S S S E  S E  S S S S S E     S S S S E  S E  S S S S S E
----------------------------4--|--5----------------------------|
----------------------------4--|--5----------------------------|
----------------------------2--|--3----------------------------|
-------------------------------|-------------------------------|
-------------------------------|----------------------------6--|
--0-0-0-0-0--0-0--0-0-0-0-0----|----0-0-0-0--0-0--0-0-0-0-0----|

  S S S S E  S E  S S S S S E
----------------------------5---||
----------------------------5---||
----------------------------3--*||
-------------------------------*||
--------------------------------||
--0-0-0-0-0--0-0--0-0-0-0-0-----||

Duration Legend
---------------
W - whole
H - half
Q - quarter
E - 8th
S - 16th
T - 32nd
X - 64th
. - note dotted
|-n-|  - n-tuplets
Login or Register to remove this ad.

4 comments on Various Super Mario World Themes

Gah, the txt version of this

Gah, the txt version of this is quite confusing. If you don't get it, check out the .mus version (which is what I originally tabbed this out on)

this is very accurate...but

this is very accurate...but I HATED the voice acting on this show...

awesome arranging.

5

awesome arranging.

Good job on the tabbing, when

Good job on the tabbing, when I play that first part I always think of lines like "It's a stone, Luigi" or "That's MAMA Luigi to you, Mario!"