Ads

Underwater Theme (Super Mario World) Guitar Tab

Submitted: Jan 19, 2009 by yoshistrings (Last updated: Dec 30, 2009)

5
Average: 5 (9 votes)
Download | Listen
Game: Super Mario World
Composer(s): Koji Kondo
Style: Arrangement, Fingerstyle
Series: Mario

AutoScroll: Slow | Medium | Fast
Super Mario World: Underwater Theme
Arranged by yoshistrings

 4/4
  Gtr I
  E E E E E E E E E E E E E E E E E E E E E E E E
|-0---------------------------------3-0--------------|
|-------1---------1-1---------1-1-----------3--------|
|-----0-----0-2-------0-2-0-------0-------2-----0----|
|---2-----2---3-3-----------------------2------------|
|-3-----3-----------3-------3---3-----0-------2------|
|-------------------------3-----------------3--------|


  E E E E E E E E E E E E E E E E E E E E E Q.
|-0-----------------------------1-0---------------|
|-------1---------1-1---------1-----3-1-----------|
|-----0-----0-2-------0-2-0-------------0---------|
|---2-----2---3-3-------------------------2-------|
|-3-----3-----------3-------3-----0---3-----3-----|
|-------------------------3-----3---3-------------|


  Q E E.. E Q E Q. E E E Q  H.
|-0---------0---------------------|
|-----1---------1--4-1---4--3-----|
|---2-----0---0--------0----------|
|-3-------------------------------|
|-----------3---------------------|
|------------------4-----4--3-----|


  Q E E.. E Q E Q. E E E H.
|-0---------0------------3-----|
|-----1---------1--4-1---------|
|---2-----0---0--------0-------|
|-3----------------------------|
|-----------3------------------|
|------------------4-----3-----|


  E E E E E E E E E E E E E E E E E E E E E E
|-0-----------------------------1-0--------------|
|-------1---------1-1---------1-----3-1----------|
|-----0-----0-2-------0-2-0-------------0--------|
|---2-----2---3-3-------------------------2------|
|-3-----3-----------3-------3-----0---3-----3----|
|-------------------------3-----3---3------------|


Duration Legend
---------------
W - whole; H - half; Q - quarter; E - 8th; S - 16th; T - 32nd; X - 64th; a - acciaccatura
+ - note tied to previous; . - note dotted; .. - note double dotted
Uncapitalized letters represent notes that are staccato (1/2 duration)
Irregular groupings are notated above the duration line
Duration letters will always appear directly above the note/fret number it represents the
duration for.  Duration letters with no fret number below them represent rests.  Multi-
bar rests are notated in the form Wxn, where n is the number of bars to rest for.  Low
melody durations appear below the staff

Tablature Legend
----------------
 h   - hammer-on
 p   - pull-off
 b   - bend
 pb  - pre-bend
 r   - bend release (if no number after the r, then release immediately)
 /\  - slide into or out of (from/to "nowhere")
 s   - legato slide
 S   - shift slide
  - natural harmonic
[n]  - artificial harmonic
n(n) - tapped harmonic
 ~   - vibrato
 tr  - trill
 T   - tap
 TP  - trem. picking
 PM  - palm muting
\n/  - tremolo bar dip; n = amount to dip
 \n  - tremolo bar down
 n/  - tremolo bar up
/n\  - tremolo bar inverted dip
 =   - hold bend; also acts as connecting device for hammers/pulls
 <>  - volume swell (louder/softer)
 x   - on rhythm slash represents muted slash
 o   - on rhythm slash represents single note slash

Misc Legend
-----------
 |  - bar
||  - double bar
||o - repeat start
o|| - repeat end
*|  - double bar (ending)
 :  - bar (freetime)
 $  - Segno
 &  - Coda
Tempo markers -  = BPM(8/16=s8/s16), where s8 = swing 8ths, s16 = swing 16ths



Login or Register to remove this ad.

6 comments on Underwater Theme

Wow, this is pretty good!

5

Wow, this is pretty good! Creative arrangement!

Beautiful!! I hope you will

Beautiful!! I hope you will make others tab like this in mario
I didn't see lot of good arrangment on this game

Great

5

sounds fantastic, good job

thanks so much! I guess the

thanks so much! I guess the best arrangements are the ones that just kinda come to you.

WOW easy to play and sounds

5

WOW easy to play and sounds so good. Thank you!

Cool! Hadn't seen one of

5

Cool! Hadn't seen one of this before!