Ads

Overworld (Super Mario World) Guitar Tab

Submitted: Aug 01, 2006 by archard (Last updated: Jan 09, 2010)

4.69231
Average: 4.7 (26 votes)
Download | Listen
Game: Super Mario World
Composer(s): Koji Kondo
Style: Transcription
Series: Mario

AutoScroll: Slow | Medium | Fast
Overworld
Super Mario World
Composed by Koji Kondo

8/1/06

e-------------------------------------------------------------------
B---------------------------1---------------------------------------
G--2--------------------------2-0-----2----------------------3-2-0--
D------3-----0-3-3--0---3-3---------------3-----0-3-3--0---3-------3
A----------3----------3-----------------------3----------3----------
E------------------------------------------------------------------- x2

e--------------------------------------------------------------
B-----------------------------------------------------1--------
G--2-----2-----1-----1---0----------2-----2-----1--------------
D----3-----3-----3--------------------3-----3-----3------------
A------3-----------3--------------------3-----------3----------
E--------------------------------------------------------------

e------------------------------
B------------------------------
G--2----------------0-2--------
D------3-----0-3-3------3---0-3
A----------3--------------3----
E------------------------------

e-----------------------------------------
B----1-3-1-3-1----------------------------
G----------------3-2-0--------------------
D-----------------------3-----------------
A--3--------------------------------------
E-----------------------------------------

e-----------------------------------------------------------------
B------------------------------------------------1-3--------------
G--------0-2-1-0-------------0-2-----------0-2-3---------------0--
D--3-0-3---------3-----3-0-3---------3-0-3---------------3-0-3---3
A-----------------------------------------------------------------
E-----------------------------------------------------------------
Login or Register to remove this ad.

22 comments on Overworld

Wow.... This is a pretty

Wow.... This is a pretty simple version... It is very nice sounding, if only I could play faster. Nice tabs here.

hey hey that tab is awsome,

hey hey that tab is awsome, as a big mario fan this tab has helped me loads thank you very much!

i get what the first 2 bits

i get what the first 2 bits r, but i cant place the last 3 bits to the tune lol, im tryin to play them but after the first 2 i just dont know what im aiming for, still these r the best tabs i can find and im only a beginner. litereally, ive been playing like 2 hours :|

Just another perfect TAB.

Just another perfect TAB. your filling up my book man.

nice i love it good job

nice i love it
good job

That was perfect. I love how

That was perfect. I love how easy it is to play.

great tab. I'd like if you

great tab. I'd like if you added the intro, though.

This was the version i came

This was the version i came up with, i think its maybe a bit too high but it sounds pretty cool for me

e--5--1-----1-1-------1-1-8-5--3------5--1-----1-1-------1--6-5-3-1-
B-------1-3------3-1-----------------------1-3------3-1-------------
G------------------------------------------------------------------- x2
D-------------------------------------------------------------------
A-------------------------------------------------------------------
E-------------------------------------------------------------------

e--5--1------5--1------4-3-1---4-3---5--1------5--1------4-3-1---8--
B--------1---------1---------1-------------1---------1---------1----
G-------------------------------------------------------------------
D-------------------------------------------------------------------
A-------------------------------------------------------------------
E-------------------------------------------------------------------

e--5--1------1-1--3-5-1------1-----8-10-8-10-8------6-5-3-1---------
B--------1-3-------------1-3----1----------------1------------------
G-------------------------------------------------------------------
D-------------------------------------------------------------------
A-------------------------------------------------------------------
E-------------------------------------------------------------------

Then repeat from the beginning =)

THIS IS ONE OF THE BEST TABS

THIS IS ONE OF THE BEST TABS IVE SEEN MAN AWESOME JOB:D

i think vikkens is better. i

i think vikkens is better. i tried it myself earlier and came up with this.

e-5----------------8-5-3--5--------------6-5-3-
b--6-6-3-6-6-6--6-6--------6-6-3-6-6-6--6-----6
g--------------5-----------------------5-------

great tab

5

great tab

would be better if my thumb

5

would be better if my thumb wasnt broken but i like the tab sounds nice

Add this to the beginning to

Add this to the beginning to get that starter tune thing going.

e-------------------------------------------------------------------
B----------8-8-8--------------8-8-8-----------8-8-8---8-----
G--0-------------------0------------------0----------------------
D------------------------------------------------------------------
A------------------------------------------------------------------
E------------------------------------------------------------------

Then wait about a second before starting the song.

If you know what part I'm talking about you'll understand the pause length.

lol nice..... if someone's

5

lol nice..... if someone's looking up this tab... they god damn better know what you're talking about haha

noce job... another top notch tab ^,^

Wow!

4

It sounds amazing!!!
Awesome job, man.

and so the nastalgia sets

12.75

and so the nastalgia sets in.

Amazing Job

Very well done, perfect tab. I chose to bring the whole thing up an octave (for those of you who aren't versed in music theory, that's 12 half-steps), and I think it sounds really good with my tone. Try it sometime just for yucks

sick!

i have been dying to play this song! thank you!

I think the last bit could be

5

I think the last bit could be a little better, but that's a really hard part to tab, I can barely even hear whats going on.

And I think at

e-----------------------------------------
B----1-3-1-3-1----------------------------
G----------------3-2-0--------------------
D-----------------------3-----------------
A--3--------------------------------------
E-----------------------------------------

There's actually a note right before the 3G, I THINK its a 2G, but I'm pretty bad at figuring these out. There is definitely something there though, I know I'm not wrong.

Bass pls

Wish someone would make a bass tab for this...or give me a link...I can't find any

I made a bass tab a while

I made a bass tab a while ago, but I guess it's posted under a different title so you couldn't find it. Sorry about that!

http://www.gametabs.net/super-nintendo/super-mario-world/level-1

I think it sounds best like this

For the intro, I play
B|6---6-6-6---6-6-8---8-8-7---7-7-6---6-6-6---6-6-9---8---
I'm not sure if it's accurate, but I think it sounds good.

Then I play what vikkens commented, and then I use the original tab for the ending.

I prefer the higher pitch that vikkens used for most of it, but with the lower tones of the original for the ending. I think it sounds more like the original that way.