Ads

Level 1 (Super Mario World) Bass Tab

Submitted: Dec 26, 2008 by auriplane

5
Average: 5 (1 vote)
Download | Listen
Game: Super Mario World
Composer(s): Koji Kondo
Style: Transcription
Series: Mario

AutoScroll: Slow | Medium | Fast
                       Super Mario World - Level 1 BASS TAB
                                Song by Koji Kondo

                      Tabbed by auriplane ([email protected])

In the game, half of this is on bass, and half is on bassoon.  (At least, 
I think it's bassoon.  I don't know much about wind instruments.  It's on
something other than bass though :-)  I just combined the two.

Rest for one measure at the beginning.

         Q     Q     Q     Q      Q     Q     E  Q.
      G |------------------------|------------------------|
      D |------------------------|------------------------|
      A |8-----------10----------|8-----------10-9--------|
      E |------10----------8-----|------10----------------|

         Q     Q     Q     Q      Q     Q     E  E  E  E
    / G |------------------------|------------------------|
   |  D |------7-----8-----9-----|7-----6-----------------|
   |  A |8-----------------------|------------10-------7--|
   |  E |------------------------|---------------8--10----|
x2 |                                                       
   |     Q     Q     Q     Q      E  E  E  E  E  E  Q
   |  G |------------------------|------------------------|
   |  D |------7-----8-----9-----|10----------------------|
   |  A |8-----------------------|------7--10-8-----8-----|
    \ E |------------------------|---8-----------8--------|

         E  E  E  E  E  E  E  E   E  E  E  E  E  E  E  E
      G |---------7--------------|------7--10-12-10-9-----|
      D |8--9--10----10-7--------|6--9-----------------10-|
      A |------------------8--10-|------------------------|
      E |------------------------|------------------------|
      
         E  E  E  E  E  E  E  E   E  E  E  E  E  E  E  E
      G |---------7--10-9--------|---7--10-------7-----9--|
      D |8--7--8-----------10-7--|9--------9--8-----10----|
      A |------------------------|------------------------|
      E |------------------------|------------------------|
      
         Q     Q     Q     Q      Q     Q     Q     Q
      G |------------------------|------------------------|
      D |------------------------|------------------------|
      A |8-----8-----------------|------------------------|
      E |------------11----11----|10----10----9-----9-----|
      
         H.                E  E   Q     Q     Q     Q
      G |------------------------|------------------------|
      D |------------------------|------------------------|
      A |---------------------7--|8-----------8-----8-----|
      E |8-----------------10----|------8-----------------|
      
         E  E  E  E  E  E  E  E   E  E  E  E  E  E  E  E
      G |---------------6--7-----|------------------------|
      D |8--7--8--9--10-------7--|---8--7-----------------|
      A |------------------------|10------10--8--------8--|
      E |------------------------|---------------10-8-----|
      
         E  E  E  E  E  E  E  E   E  E  E  E  E  E  E  E
      G |---------------6--7-----|------------------------|
      D |8--7--8--9--10-------7--|---8--7-----------------|
      A |------------------------|10------10--8-----8-----|
      E |------------------------|---------------8--------|
     
Repeat back to the beginning.


Login or Register to remove this ad.