Ending (Super Mario World) Guitar Tab

Submitted: Oct 03, 2007 by archard

3.636365
Average: 3.6 (11 votes)
Download | Listen
Game: Super Mario World
Composer(s): Koji Kondo
Style: Transcription
Series: Mario

AutoScroll: Slow | Medium | Fast
Ending
Super Mario World
Composed by Koji Kondo

3/28/07

e--------------------------------------------------------------
B----8-10-8---10-12-13-12p11-10-------8-10-8---9-10-11-10p9-8--
G--9------------------------------8-9--------------------------
D--------------------------------------------------------------
A--------------------------------------------------------------
E--------------------------------------------------------------

e----------------------------------------------------
B--10-12-13-10---9-8-9-10----------------------------
G-------------------------9---9-------9----------12--
D-------------------------------10------10----10-----
A----------------------------------12------12--------
E----------------------------------------------------

e--------------------------------------------------------------
B----8-10-8---10-12-13-12p11-10-------8-10-8---9-10-11-10p9-8--
G--9------------------------------8-9--------------------------
D--------------------------------------------------------------
A--------------------------------------------------------------
E--------------------------------------------------------------

e-------------------------12---12-11-12----------------
B--10-12-13-10---9-8-9-10---------------13--13-10--13--
G------------------------------------------------------
D------------------------------------------------------
A------------------------------------------------------
E------------------------------------------------------

e---------------------------------------------------------------
B---------------------------------------------------------------
G---------------------------------------------------------------
D-----14--14-14-13-14-15-14-11---------14-12-14-12-14-12-10-----
A--12--------------------------12---12----------------------12--
E---------------------------------------------------------------

e------------------------------------------------------------
B------------------------------------------------------------
G---------------------9--------------------------------------
D-----12--12-12-11-12---12-9------12-10-10-10-12-13-14-------
A--10------------------------10--------------------------10--
E------------------------------------------------------------

And that's about it. Everything is basically just a repeat of these
lines played just a little differently.
Login or Register to remove this ad.

6 comments on Ending

Awesome thanks And best of

Awesome thanks And best of all i can play it on my guitar. xD

it sounds good.its so hard

it sounds good.its so hard to do it so fast

Excellent

5

more proof, if any were needed, that archard is the best tabber on this site...

nice man

da one ive benn lookin for

Awesome!

5

Correct. NIce tab!

Great

5

This tab need 5 stars