Ads

Air Platform (Super Mario World) Guitar Tab

Submitted: Nov 17, 2007 by Stamen47 (Last updated: Sep 24, 2009)

4.9375
Average: 4.9 (16 votes)
Download | Listen
Game: Super Mario World
Composer(s): Koji Kondo
Style: 2 or more instruments, Fingerstyle, Transcription
Series: Mario

AutoScroll: Slow | Medium | Fast
                       Super Mario World - Air Platform                         


Guitar 1
      S  S  S  S  E   S  S E   E   Q         S S S S S E  S S S S S E  E   
E||---7--------7--L-----------12--12----||-------5-----5----5-----5-L-----|
B||-----10-----------10-------12--12----||---------5-8----5---5-8---------|
G||--10----10-10--L-----10-9--13--13----||*------------6----6-----6-L-----|
D||-------------------------------------||*----7-----------------------7--|
A||-------------------------------------||--------------------------------|
E||-------------------------------------||--------------------------------|


  S S S S S E  S S S S S E  E     S S S S S E  S S S S S E  E   
------5-----5----5-----5-L-----|------3-----3----3-----3-L-----|
------6-----6----6-----6-L-----|--------3-6----3---3-6---------|
----------7----------7---------|------------4----4-----4-L-----|
----7---7------7---7--------7--|----5-----------------------5--|
-------------------------------|-------------------------------|
-------------------------------|-------------------------------|


  S S S S S E  S E  E  E  E     S S S S S E  S S S S S E  E   
------3-----3----3--3--2--1--|------5-----5----5-----5-L-----|
----------5----5-------------|--------5-8----5---5-8---------|
--------5---5----------------|------------6----6-----6-L-----|
----5------------------------|----7-----------------------7--|
-----------------------------|-------------------------------|
-----------------------------|-------------------------------|


  S S S S S E  S S S S S E  E     S S S S S  E  S S S S  S  E  E   
------5-----5----5-----5-L-----|------7------7----7------7--L-----|
------6-----6----6-----6-L-----|----------8-----------8-----------|
----------7----------7---------|--------7---10------7---10--L-----|
----7---7------7---7--------7--|----9-----------9--------------9--|
-------------------------------|----------------------------------|
-------------------------------|----------------------------------|


  S  S S  S  S S  S S E  E  Q        Q    E.  S  S  E   S  E.   S  
-------8------------7-8--7--8----|--12----8---------8---8--L------|
---------------8-10---8--8--8----|--13----8---8-10-10--10--L---10-|
-------9--------------9-----9----|--12----9-----------------------|
----10---10--L-------------------|--------------------------------|
---------------------------------|--------------------------------|
---------------------------------|--------------------------------|


  E  E  E   E   E.   S  E.   S     Q    E.  S  S  E   S  E.   S  
-----8--8--15--12---10--L------|--12----8---------8---8--L------|
--8--8--7------12---12--L------|--13----8---8-10-10--10--L---10-|
---------------12---12--L---12-|--12----9-----------------------|
-------------------------------|--------------------------------|
-------------------------------|--------------------------------|
-------------------------------|--------------------------------|


  E  E   S  S  S  S  Q    Q        Q    E.  S  S  E   S  E.   S  
-----7--13-12------------------|--12----8---------8---8--L------|
--8--8--------15-13--L---------|--13----8---8-10-10--10--L---10-|
--7--------------12--L---------|--12----9-----------------------|
-----------------14--L---------|--------------------------------|
-------------------------------|--------------------------------|
-------------------------------|--------------------------------|


  E  E  E   E   E.   S  E.   S     Q    E.  S  S  E   S  E.   S  
-----8--8--15--12---10--L------|--12----8---------8---8--L------|
--8--8--7------12---12--L------|--13----8---8-10-10--10--L---10-|
---------------12---12--L---12-|--12----9-----------------------|
-------------------------------|--------------------------------|
-------------------------------|--------------------------------|
-------------------------------|--------------------------------|


  E  E   S  S  S  S  Q    Q        E.   S  E   E   E.   S  Q     
-----7--13-12------------------|--12--------------12------------|
--8--8--------15-13--L---------|--13---13--L------13---13--L----|
--7--------------12--L---------|-------14--L--12--12---12--L----|
-----------------14--L---------|--------------------------------|
-------------------------------|--------------------------------|
-------------------------------|--------------------------------|


   S  S  E   E.   S  Q    Q        E.   S  E   E   E.   S  Q     
--11--------11---10--L---------|--12--------------12------------|
--13-13-----13---12--L---------|--13---13--L------13---13--L----|
--------12---------------------|-------14--L--12--12---12--L----|
-------------------------------|--------------------------------|
-------------------------------|--------------------------------|
-------------------------------|--------------------------------|


   S  S  E   Q    H            Q    E.  S  S  E   S  E.   S  
--11--------15-------------|--12----8---------8---8--L---10-|
--13-13-----15-------------|--13----8---8-10-10--10--L------|
--------12-----------------|--12----------------------------|
---------------------------|--------------------------------|
---------------------------|--------------------------------|
---------------------------|--------------------------------|


   S  S  E   E.   S  Q    E.   S     E   E   E   E   E.   S  S  S  E   
--12--------------8--L-----------|--15--17--15--17--15------13-12-10--|
-----13-----10---10--L-----------|------------------------------------|
--------12---9----8--L--------14-|-----------------------12-----------|
---------------------------------|------------------------------------|
---------------------------------|------------------------------------|
---------------------------------|------------------------------------|

1st ending            2nd ending
  W                     H.           S E.     Q     Q     Q      E  E    
--8-----------------||--8------------8-----|---------------------------||
--------------------||---------------8-----|-------13S----1s----13-----||
-------------------*||---------------9-----|---------------------------||
-------------------*||---------------------|---------------------------||
--------------------||---------------------|---------------------------||
--------------------||---------------------|---------------------------||



Guitar 2
     E.  S Q    H             E  E  E  E  E  E  E  E   
E||-------------0--------||---------------------------|
B||--2---2-L-------------||------2-----2-----2-----2--|
G||----------------------||*-----2-----2-----2-----2--|
D||--3---3-L----2--------||*--------------------------|
A||----------------------||---0-----------0-----------|
C||----------------------||---------4-----------4-----|


  E  E  E  E  E  E  E  E     E  E  E  E  E  E  E  E   
--------------------------|--------------------------|
-----3-----3-----3-----3--|-----0-----0-----0-----0--|
--------------------------|-----0-----0-----0-----0--|
-----3-----3-----3-----3--|--------------------------|
--------0-----------0-----|--------------------------|
--2-----------2-----------|--7-----2-----7-----2-----|


  E  E  E  E  E  E  E  E     E  E  E  E  E  E  E  E   
--------------------------|--------------------------|
-----------1--------------|-----2-----2-----2-----2--|
--------0-----3--3--2--1--|-----2-----2-----2-----2--|
--------------2--2--1--0--|--------------------------|
-----3--------3--3--2--1--|--0-----------0-----------|
--0-----------------------|--------4-----------4-----|


  E  E  E  E  E  E  E  E     E  E  E  E  E  E  E  E   
--------------------------|--------------------------|
-----3-----3-----3-----3--|-----0-----0-----0-----0--|
--------------------------|-----0-----0-----0-----0--|
-----3-----3-----3-----3--|--------------------------|
--------0-----------0-----|--------------------------|
--2-----------2-----------|--7-----2-----7-----2-----|


  E  E  E  E  E  E  E  E     E  E  E  E  E  E  E  E   
--------------------------|--------------------------|
--------------------------|--------------------------|
--------------------------|-----0-----0-----2--------|
--------2-----------------|-----2-----2-----3-----7--|
-----3-----3-----------3--|-----------------------9--|
--0-----------0--7--0-----|--0-----4-----5-----6-----|


  E  E  E  E  E  E  E   E     E  E  E  E  E  E  E  E   
---------------------------|--------------------------|
------------------------8--|--------------------------|
-----0-----0-----2-----10--|-----0-----0-----2--------|
-----2-----1-----3------9--|-----2-----2-----3-----7--|
---------------------------|-----------------------9--|
--4-----3-----2-----7------|--0-----4-----5-----6-----|


  E  E  E   E  E  E  E  E     E  E  E  E  E  E  E  E   
---------------------------|--------------------------|
---------------------------|--------------------------|
-----2------------0-----0--|-----0-----0-----2--------|
-----3------9-----2-----2--|-----2-----2-----3-----7--|
-----------10--------------|-----------------------9--|
--2-----7------0-----0-----|--0-----4-----5-----6-----|


  E  E  E  E  E  E  E   E     E  E  E  E  E  E  E  E   
---------------------------|--------------------------|
------------------------8--|--------------------------|
-----0-----0-----2-----10--|-----0-----0-----2--------|
-----2-----1-----3------9--|-----2-----2-----3-----7--|
---------------------------|-----------------------9--|
--4-----3-----2-----7------|--0-----4-----5-----6-----|


  E  E  E   E  E  E  E  E     E  E  E  E  E  E  E  E   
---------------------------|--------------------------|
---------------------------|--------------------------|
-----2------------0-----0--|-----2-----2-----0-----0--|
-----3------9-----2-----2--|-----3-----3-----2-----2--|
-----------10--------------|--------------------------|
--2-----7------0-----0-----|--5-----5-----4-----4-----|


  E  E  E  E  E  E  E   E     E  E  E  E  E  E  E  E   
---------------------------|--------------------------|
------------------------8--|--------------------------|
-----0-----0-----2-----10--|-----2-----2-----0-----0--|
-----1-----1-----3------9--|-----3-----3-----2-----2--|
---------------------------|--------------------------|
--3-----3-----2-----7------|--5-----5-----4-----4-----|


  E  E  E  E  E  E  E   E     E  E  E  E  E  E  E  E   
---------------------------|--------------------------|
------------------------8--|-----1-----1-----1-----1--|
-----0-----0-----2-----10--|-----0-----0-----0-----0--|
-----1-----1-----3------9--|-----------------3-----3--|
---------------------------|--3-----3-----1-----1-----|
--3-----3-----2-----7------|--------------------------|


                                ^                   
  E  E  E  E  E   E  E   E      H.           E  E   
----------------------------|----------------------|
-----5-----5------7------7--|---8------------------|
-----5-----5------8------8--|--10------------0-----|
-----5-----5-----10-----10--|---9---------------3--|
--0-----0-------------------|----------------0--2--|
--------------8------8------|---7------------------|

1st ending                   2nd ending
  E  E  E  E  E  E  E  E       H.           E  E     W                  
---------------------------||---------------------|-------------------||
---------------------------||---------------------|-------------------||
-----0-----0-----0-----0--*||--0------------0-----|-------------------||
-----2-----2-----2-----2--*||--2------------2-----|-------------------||
---------------------------||---------------------|-------------------||
--0-----0-----0-----0------||--0------------0-----|-------------------||




Duration Legend
---------------
W - whole
H - half
Q - quarter
E - 8th
S - 16th
. - note dotted

Login or Register to remove this ad.

9 comments on Air Platform

This is GODLIKE. Too bad

This is GODLIKE.

Too bad it's not for solo guitar.

I love you Stamen :D

I love you Stamen :D

woah!!! awesome sounding!

woah!!! awesome sounding! difficult to play

Wonderfully done, I've been

5

Wonderfully done, I've been looking for this version for a while.

god this is hard to

god this is hard to play

these levels wre always my favorite

yup, I wish it was solo too.

yup, I wish it was solo too.

OMG! is very cool..!! but

OMG! is very cool..!! but hard n_n :S

Two guitars

5

Arg!! Need to convince my friends to play fingerstyle so we can play this! ..or find a fingerstyle player and make him into a mario fan!

Great tab, definitely going to learn both parts!

Definitely going to give this

5

Definitely going to give this the old college try if I get access to a cutaway classical. It's really nice but I just can't do those past-12th-fret parts quickly enough (even at greatly reduced tempo).