Ads

Story Music Box (Super Mario World 2: Yoshi's Island) Guitar Tab

Submitted: Apr 13, 2009 by OMLK5150

2.666665
Average: 2.7 (3 votes)
Download | Listen
Game: Super Mario World 2: Yoshi's Island
Composer(s): Koji Kondo
Style: Arrangement
Series: Mario

AutoScroll: Slow | Medium | Fast
Yoshi's Island - Story Music Box
Koji Kondo

Tab: Ole Martin Langfeldt Kaarigstad - OMLK5150
Tempo: 100
Tuning: Standard

   Q  E E Q  Q     Q  E E Q  Q
e|------------------------------------
B|-1--0-1-0---------------------------
G|-----------2-----2--0-2-0-----------
D|---------------------------2--------
A|------------------------------------
E|------------------------------------


   Q  E E Q  Q      E E E E E E E E
e|------------------------------------
B|------------------------------------
G|------------------------------------
D|-3--2-3-2----------0----------------
A|-----------2---------3-2-0-0--------
E|-----------------------------3-1-0--


   Q  E E Q  Q     Q  E E Q  Q
e|------------------------------------
B|-1--0-1-0---------------------------
G|-----------2-----2--0-2-0-----------
D|---------------------------2--------
A|------------------------------------
E|------------------------------------


   Q  E E Q  Q      E E E E E E E E
e|------------------------------------
B|------------------------------------
G|------------------------------------
D|-3--2-3-2---------------------------
A|-----------2------3-2-0-2-3-2-0-----
E|--------------------------------3---


                  W                 Rep 2
e|------------------------------------
B|------------------------------------
G|------------------------------------
D|------------------------------------
A|------------------------------------
E|------------------------------------


   Q  E E Q  Q      Q  E E Q  Q
e|------------------------------------
B|------------------------------------
G|-2--0---0-------------------0-------
D|------3----2------3--2-0-2----------
A|------------------------------------
E|------------------------------------


   Q  E E Q  Q      Q  E E H
e|------------------------------------
B|-----------1------1--0---0----------
G|-2--0---0--------------2------------
D|------3-----------------------------
A|------------------------------------
E|------------------------------------

   Q  E E Q  Q      Q  E E Q  Q
e|----------------------------0-------
B|-1--0-1-0--1------3--1-0-1----------
G|------------------------------------
D|------------------------------------
A|------------------------------------
E|------------------------------------

   Q  E E Q  E E    E E E E E E E E
e|-0----------------------------------
B|----3-1-0--1-3----3-1-0-------------
G|------------------------2-0---------
D|----------------------------3-2-0---
A|------------------------------------
E|------------------------------------


W = Whole
H = Half
Q = Quarter
E = Eighth


Repeat as much as you like ;)    My first tab :D 
Login or Register to remove this ad.