Valentina (Super Mario RPG) Guitar Tab

Submitted: Oct 03, 2007 by Kabukibear (Last updated: Sep 20, 2009)

4.7
Average: 4.7 (10 votes)
Download | Listen
Game: Super Mario RPG
Composer(s): Yoko Shimomura
Style: Arrangement, Fingerstyle
Series: Mario

AutoScroll: Slow | Medium | Fast
Valentina
~Super Mario RPG: Legend of the Seven Stars~
Composed by: Yoko Shimomura
Arranged by: Justin Lincoln

                                      |-3-|
     E  E  E  E  E  E     E  E  E  E  S S S E     E  E  E  E  E  E
E||--------------------|-----------------------|-----1--0--------0--|
B||--------------0-----|--1-----3-----0-1-0----|-----------3--1-----|
G||--------2-----------|-----------5--------2--|--1-----------------|
D||-----2-----2-----2--|-----2-----------------|--------------------|
A||--0-----------------|-----------------------|--------------------|
E||--------------------|--0-----4--------------|--------0--------0--|

                             |-3-|
  E  E  E  E  E  E     E  E  S S S E  E  E     E  E  E  E  E  E
--5--4--5--0--------|--------3-----1--3-----|--------------------|
--------------3--1--|--0--3--------------3--|--1--0--------1-----|
--------------------|-----------------------|--------2-----2--1--|
--------------------|--0-----------------3--|--2--0-----3--------|
--0-----2-----3-----|-----3--2-3-2-0--------|--------3-----------|
-----0-----0-----0--|-----------------3-----|--------------------|

  E  E  E  E  E  E     E  E  E  E  E  E     E  E  E  E  E  E
--1-----------------|-----------0--------|-----------------0--|
--------------------|--0-----3-----6--3--|--1-----------0-----|
--2-----2-----1--2--|-----5--------------|--------2-----------|
-----3--0-----------|--------------------|-----2-----2-----2--|
-----------3--2-----|--------------------|--0-----------------|
--------------------|--4-----0-----4-----|--------------------|

              |-3-|
  E  E  E  E  S S S E     E   E  E  E  E  E      E  E   E  E  E  E
--5--8--7--------------|--7--10--8--7--5-----|---8-----12-----------|
-----------------------|------------------5--|--10--9--10-----7-----|
--5-----7--5--4-5-4----|-----10--9--7--5-----|-------------9--7--5--|
--------------------7--|--6------------------|----------------------|
-----7-----------------|---------------------|----------------------|
-----------------------|---------------------|----------------------|

  E  E  E  E   E  E     E  E  E  E   E  E      E   E  E  E  E  E
--------7-----10-----|--0--------5--10--9--|--10------------0-----|
--8-----8--6---8-----|-----0--6------------|------10--8--6-----8--|
-----7------------7--|--5-----5------------|----------0-----0-----|
--9------------------|---------------7-----|-------------7--------|
---------------------|---------------------|---8------------------|
---------------------|---------------------|----------------------|

        ^
                                                      |-3-|
  E  E  Q    Q       E  E  E  E  E  E     E  E  E  E  S S S E
--8---------------|--------------------|--------------1--------|
--------3----0----|--1-----------------|-----------3--------3--|
--------0---------|--------------------|-----------------------|
--------3----3----|--2-----------0-----|--2-----3--2--0-2-0----|
--8--7------------|--------3-----------|--------------------3--|
------------------|-----3-----3-----3--|-----3-----------------|

                       |-3-|                         |-3-|
  E  E  E  E  E  E     S S S E  E  E  E  E     E  E  S S S E  E  E
--3-----5-----3--1--|--0-1-0-------6--5--3--|--1--0--------------0--|
-----3-----3--------|--1-----3--2-----------|--------3-5-3-2--3-----|
-----2--0--------0--|--------4--2--0--------|-----------------------|
-----------3--2-----|-----------------3--2--|--0-----2--------3-----|
--2-----------------|-----------------------|-----------------------|
--------------------|-----------------------|-----------------------|

                          |-3-|                         |-3-|
  E  E  E  E  E  E     E  S S S E  E  E  E     E  E  E  S S S E  E
--1-----------------|-----------------------|-----------------------|
-----2--3-----------|--------------------0--|--3--1--0--------------|
--------------------|-----------------------|-----------2-4-2-0-----|
-----------0--3--2--|--0--------------------|--------------------3--|
--0-----------------|-----3-5-3-2--0--------|-----------------------|
-----3--1-----------|-----------------3-----|-----------------------|

                 |-3-|                            |-3-|
  E  E  E  E  E  S S S    E  E  E  E  E  E     E  S S S E  E  E  E
-----------------------|--------------------|-----------------------|
-----------------------|--------------1--0--|-----------------------|
-----------------------|-----------2--------|--2--0-2-0-------------|
--2-----2--0-----------|--------------------|-----------3--2--0--3--|
-----3--------3--2-3-2-|--0-----------------|--------------------0--|
--3--------------------|-----3--1-----------|-----------0-----1-----|

  E  E  E  E  E  E     E  E  E  E  E  E     E  E  E  E  E  E
-----------------0--|-----------1--------|-----2-----3--2--3--|
-----3--------2-----|--------3-----------|--3--------------3--|
--2--------0--------|-----2-----------2--|-----------0--3-----|
--0-----2-----2-----|--3--0--3-----4--0--|--4-----------------|
-----------4--------|--0-----------3-----|--------1-----------|
--------3-----------|--------------------|--------------------|

  E  E  E  E  E  E     E  E  E  E  E  E     E  E  E  E  E  E
--------------------|-----------------3--|-----1--0--1--------|
--3--4--1--3--------|--------------3-----|-----------0--2--3--|
--3-----2-----3--5--|--2--3--0--3--------|--------1-----1-----|
--------------5-----|--0-----------0-----|--0--3-----------0--|
--------------------|--------1-----------|--------------------|
--------------------|--------------------|--------------------|

  E  E  E  E  E  E     E  E  E  E  E  E     E  E  E  E  E  E
-----------1--------|-----------1--------|-----------0--5--8--|
--0--1--3-----0--3--|-----0--3-----1-----|--------0-----------|
--1--2--4-----1-----|--1-----------------|--2-----------5-----|
--------------------|--3--------------2--|-----2-----2--------|
--------------------|--------2-----------|-----------------7--|
--------------------|--------------------|--------------------|

  E  E  E  E  E  E     E  E  E  E  E  E     E  E  E  E  E  E
--7-----5-----4--1--|--0--------0--5--4--|--5--0--------------|
-----0-----3--5--3--|--1--3--1-----------|--5-----3--1--0--3--|
--7-----5-----------|-----4--------5-----|--------------0-----|
--------------------|--------------------|--------3-----------|
--------------------|--------0-----------|--------------------|
--------------------|--0-----------------|--------------------|

                                                        |-3-|
  E  E  E  E  E  E     E  E  E  E  E  E     E  E  E  E  S S S E
--3--1--3-----------|--------5-----1-----|-----------------------|
--0-----3--3--1--0--|--1-----------------|--1-----0--------------|
--------------------|--------------------|-----------2--1-2-1----|
--------------2-----|--------0-----2-----|--3-----0-----------3--|
--------------------|-----0-----0-----0--|-----0--------2--------|
--------------------|--1-----------------|-----------------------|

                         ^
  E  E  E  E       E     E     E
---------------||-----|--5--|-----||
---------------||-----|--5--|-----||
--------------*||-----|--5--|--2--||
--2--0--------*||-----|-----|--2--||
--------3--2---||--0--|-----|--0--||
--4-----0------||-----|-----|-----||

Duration Legend
---------------
W - whole
H - half
Q - quarter
E - 8th
S - 16th
T - 32nd
X - 64th
. - note dotted
|-n-|  - n-tuplets

Tablature Legend
----------------
^ - brush up
Login or Register to remove this ad.

4 comments on Valentina

lol dude you're psychoatic!

lol dude you're psychoatic!

psychotic indeed

psychotic indeed

As much as I LURVE this

As much as I LURVE this song, I just can't play this. Nice job with the tab though!

Nope. Duet. hahaha

Nope. Duet. hahaha