Forest Maze (Super Mario RPG) Guitar Tab

Submitted: Nov 01, 2007 by cgseth (Last updated: Sep 24, 2009)

4.375
Average: 4.4 (8 votes)
Download | Listen
Game: Super Mario RPG
Composer(s): Yoko Shimomura
Style: Arrangement, Fingerstyle
Series: Mario

AutoScroll: Slow | Medium | Fast
Super Mario RPG - Forest Maze
Composed by: Yoko Shimomura
Arranged by: cgseth

Guitar
E||--------------------------------|--------------------------------|
B||-------------3---1-------0------|-1-----0-1---0------------------|
G||-------0-2-----------2----------|-----2---------0----------------|
D||-0-2-3-----------------------0--|-----------------2---3---2------|
A||-----0-------0-------3----------|-----3-------3-------3-------3--|
D||-0-------0-------3-------5------|-3-------3-------2-------2------|

E|--------------------------------|---------------------------------||
B|--------------------------------|---------------------------------||
G|--------------------------------|-0---------------0-----0-2------*||
D|-0-2-3-5-3---2-3-5---3-2-0------|-----3-2-0---2-3-----3-------2--*||
A|-----0-------0-------0-------0--|-----5-------5-------5---0-------||
D|-3-------3-------3-------3------|-5-------5-------5---------------||

E|--------------------------------|--------------------------------|
B|-3---------------1--------------|--------------------------------|
G|-------2-------2-------2-3------|-2---------------0--------------|
D|-----0-------0-------0-------0--|-----0-------0-------0---3------|
A|---0-------0-------0-------0---0|---0---0---0---0---0---0---0---0|
D|-0-------0-------0-------0------|-0-------0-------0-------0---0--|

E|--------------------------------|--------------------------------|
B|--------------------------------|-------------------------3-1----|
G|--------------------------------|-----------------------------3-2|
D|-1-----1-------1-------1-------1|-0-----0-------0-------0--------|
A|-----0-------0-------0-------0--|-----0-------0-------0----------|
D|-0-4-----0-4-----0-4-----0-4----|-0-4-----0-4-----0-4-----0---0--|

E|-------------3---1-------0------|-1-----0-1---0------------------|
B|-------1-3-----------3----------|-----3---------1----------------|
G|-0-2-3-----------------------0--|-----------------2---3---2------|
D|-----0-------0-------3----------|-----3-------3-------3-------3--|
A|-----------------1-------3------|-1-------1-------0-------0------|
D|-5-------5----------------------|--------------------------------|

E|--------------------------------|--------------------------------|
B|-------1---------1--------------|-1---------------1-----1-3------|
G|-0-2-3---3---2-3-----3-2-0------|-----3-2-0---2-3-----3----------|
D|-----0-------0-------0-------0--|-----3-------3-------3---0------|
A|-1-------1-------1-------1------|-3-------3-------3-----------0--|
D|--------------------------------|--------------------------------|

E|-------------3---6---5-3-1------|-3---1--------------------------|
B|-------1-3-------------------3--|-------4-3---1---------------1--|
G|-0-2-3--------------------------|-----3-------3---3---2---3------|
D|-----0-------0-------3-------3--|-1-------1-------3--------------|
A|-------------------------1------|--------------------------------|
D|-5-------5-------8--------------|--------------------------------|

E|-------------3---6---5-3-1------|-3---1--------------------------|
B|-------1-3-------------------3--|-------4-3---1---------------1--|
G|-0-2-3--------------------------|-----------------3---2---3------|
D|-----0-------0-------3-------3--|--------------------------------|
A|-------------------------1------|-----1-------1------------------|
D|-5-------5-------8--------------|-1-------1-------3--------------|

                                                             Da Capo
E|--------------------------------|----------------------------------||
B|-0-----1-3----------------------|----------------------------------||
G|--------------------------------|-------------------------2-0------||
D|-----0-------0-------0-------0--|-----0-------0-------2-------3-2--||
A|--------------------------------|-----------------0-------0---0----||
D|-5-------5-------5-------5------|-5-------5------------------------||
Login or Register to remove this ad.

14 comments on Forest Maze

I don't agree with some of

I don't agree with some of the fingering on this, but whatever floats your boat. :D

I have to admit the second

I have to admit the second section is a bit hard to play smoothly like this. But what is your solution?

i enjoy this tab very much

i enjoy this tab very much thank you

I don't quite get the extra

I don't quite get the extra 3s and 0s on the lower strings. Are you supposed to hit them with your thumb at the same time as playing the other bit?

yes anonymous, its

yes anonymous, its classically transcribed with the bass line incorporated

Wow, Fantastic job man, I

5

Wow, Fantastic job man, I love the added bass notes and the classical set-up, I'm going to add this to my arsenal of songs XD

Something doesn't sound

Something doesn't sound right about this. I don't know about the tabs, but the midi is way off. It sounds very different from what I remember in the game. Of course it was orchestrated then. I think it's that the version here is played in all minor chords instead of major chords. It's like down notes versus the enthusiastic high notes from the game. I don't know for sure, but it's definitely not the melody I recall.

The midi sounds fine to me.

The midi sounds fine to me. The melody is actually in Dorian mode, which is a minor mode.

why is the strings E why not

why is the strings E why not E
B B
G G
D D
A A
D E

Because it's played in Drop

Because it's played in Drop D Tuning, meaning you tune the low E string down a half step to D

its fine the way it is

its fine the way it is cheers

acctualy u down a full step

acctualy u down a full step down its not astro physics.

It sounds a bit... off...

It sounds a bit... off... maybe im a noob or something, but can someone upload a vid of this tab being playing?

If you mean it does not sound

If you mean it does not sound like the original, than it's not supposed to. This is an arrangement made by the tabber.