Ads

Forest Maze (Super Mario RPG) Guitar Tab

Submitted: Nov 24, 2008 by MunkyJeebus (Last updated: Dec 29, 2009)

5
Average: 5 (10 votes)
Download | Listen
Game: Super Mario RPG
Composer(s): Yoko Shimomura
Style: 2 or more instruments, Transcription
Series: Mario

AutoScroll: Slow | Medium | Fast
e|----------
B|-9-7------
G|-----9-8--
D|----------
A|----------
E|----------



e|------------9--7-----6h7p6---7----6-7--6-----------------------------
B|-------7-9--------9-------------9--------7-------------------7-------
G|-6-8-9-------------------------------------8--9--8h9p8-6-8-9---9--8-9
D|---------------------------------------------------------------------
A|---------------------------------------------------------------------
E|---------------------------------------------------------------------



e|---------------------------------------------------------------------
B|-7---------7-------------7----7-9------------------------------------
G|----9-8-6-----9-8-6--8-9----9----------------------------------------
D|---------------------------------------------------------------------
A|---------------------------------------------------------------------
E|---------------------------------------------------------------------



e|------------9--7-----6h7p6---7----6-7--6-----------------------------
B|-------7-9--------9-------------9--------7-------------------7-------
G|-6-8-9-------------------------------------8--9--8h9p8-6-8-9---9--8-9
D|---------------------------------------------------------------------
A|---------------------------------------------------------------------
E|---------------------------------------------------------------------



e|---------------------------------------------------------------------
B|-7---------7-------------7----7-9------------------------------------
G|----9-8-6-----9-8-6--8-9----9----------------------------------------
D|---------------------------------------------------------------------
A|---------------------------------------------------------------------
E|---------------------------------------------------------------------


guitar 1

e|-------------------------------------------------
B|----------14----------14----------14----------14-
G|-------13----------13----------13----------13----
D|-13-14-------13-14-------13-14-------13-14-------
A|-------------------------------------------------
E|-------------------------------------------------

e|--------------------------------------------------
B|----------12----------12----------12----------12--
G|-------11----------11----------11----------11-----
D|-11-12-------11-12-------11-12-------11-12--------
A|--------------------------------------------------
E|--------------------------------------------------


e|-----7-9-----7-9-----7-9-----7-9-----------------
B|-6-9-----6-9-----6-9-----6-9---------------------
G|-------------------------------------------------
D|-------------------------------------------------
A|-------------------------------------------------
E|-------------------------------------------------

e|-------------------------------------------------
B|----------14----------14----------14----------14-
G|-------13----------13----------13----------13----
D|-13-14-------13-14-------13-14-------13-14-------
A|-------------------------------------------------
E|-------------------------------------------------

guitar 2

e|-------------------------------------------------
B|-------------------------------------------------
G|--6--6--4----------------------------------------
D|--6--6--4--7--6--6--4--2-------------------------
A|-----------7--6--6--4--2--4~---------------------
E|--------------------------4~---------------------


e|------------
B|-14-12------
G|-------14-13
D|------------
A|------------
E|------------




e|-----------------14--12------11h12p11---12-----11-12--11-------------
B|----------12-14----------14-----------------14-----------12----------
G|-11-13-14---------------------------------------------------13--14---
D|---------------------------------------------------------------------
A|---------------------------------------------------------------------
E|---------------------------------------------------------------------


e|---------------------------------------------------------------------
B|--------------------12-----------12-------------12-------------------
G|13h14p13---11-13-14----14--13-14-----14-13-11-------14-13-11--13-14--
D|---------------------------------------------------------------------
A|---------------------------------------------------------------------
E|---------------------------------------------------------------------


e|---------------
B|12-----12-14---
G|----14---------
D|---------------
A|---------------
E|---------------


e|--------------------------------------------------------------------------
B|-------------------10--9--------------------------------------------------
G|---------------11--------11-9------11--9----------------------------------
D|---------9-11------------------11--------12-11--9--------------9--8~------
A|-9-11-12-------------------------------------------12--11--12-------------
E|--------------------------------------------------------------------------


e|-----------------14--17--16-14-12------14--12------------------------------------
B|----------12-14--------------------14---------15-14--12--------------12--11--14~~
G|-11-13-14------------------------------------------------14--13--14--------------
D|---------------------------------------------------------------------------------
A|---------------------------------------------------------------------------------
E|---------------------------------------------------------------------------------


e|-----------------14------------------14------------------14------------------14
B|----------12-14---------------12-14---------------12-14---------------12-14----
G|-11-13-14------------11-13-14------------11-13-14------------11-13-14----------
D|-------------------------------------------------------------------------------
A|-------------------------------------------------------------------------------
E|-------------------------------------------------------------------------------


e|----------
B|-9-7------
G|-----9-8--
D|----------
A|----------
E|----------



e|------------9--7-----6h7p6---7----6-7--6-----------------------------
B|-------7-9--------9-------------9--------7-------------------7-------
G|-6-8-9-------------------------------------8--9--8h9p8-6-8-9---9--8-9
D|---------------------------------------------------------------------
A|---------------------------------------------------------------------
E|---------------------------------------------------------------------



e|---------------------------------------------------------------------
B|-7---------7-------------7----7-9------------------------------------
G|----9-8-6-----9-8-6--8-9----9----------------------------------------
D|---------------------------------------------------------------------
A|---------------------------------------------------------------------
E|---------------------------------------------------------------------



e|------------9--7-----6h7p6---7----6-7--6-----------------------------
B|-------7-9--------9-------------9--------7-------------------7-------
G|-6-8-9-------------------------------------8--9--8h9p8-6-8-9---9--8-9
D|---------------------------------------------------------------------
A|---------------------------------------------------------------------
E|---------------------------------------------------------------------



e|---------------------------------------------------------------------
B|-7---------7-------------7----7-9------------------------------------
G|----9-8-6-----9-8-6--8-9----9----------------------------------------
D|---------------------------------------------------------------------
A|---------------------------------------------------------------------
E|---------------------------------------------------------------------


guitar 1

e|-------------------------------------------------
B|----------14----------14----------14----------14-
G|-------13----------13----------13----------13----
D|-13-14-------13-14-------13-14-------13-14-------
A|-------------------------------------------------
E|-------------------------------------------------

e|--------------------------------------------------
B|----------12----------12----------12----------12--
G|-------11----------11----------11----------11-----
D|-11-12-------11-12-------11-12-------11-12--------
A|--------------------------------------------------
E|--------------------------------------------------


e|-----7-9-----7-9-----7-9-----7-9-----------------
B|-6-9-----6-9-----6-9-----6-9---------------------
G|-------------------------------------------------
D|-------------------------------------------------
A|-------------------------------------------------
E|-------------------------------------------------

e|-------------------------------------------------
B|----------14----------14----------14----------14-
G|-------13----------13----------13----------13----
D|-13-14-------13-14-------13-14-------13-14-------
A|-------------------------------------------------
E|-------------------------------------------------

guitar 2

e|-------------------------------------------------
B|-------------------------------------------------
G|--6--6--4----------------------------------------
D|--6--6--4--7--6--6--4--2-------------------------
A|-----------7--6--6--4--2--4~---------------------
E|--------------------------4~---------------------


e|------------
B|-14-12------
G|-------14-13
D|------------
A|------------
E|------------




e|-----------------14--12------11h12p11---12-----11-12--11-------------
B|----------12-14----------14-----------------14-----------12----------
G|-11-13-14---------------------------------------------------13--14---
D|---------------------------------------------------------------------
A|---------------------------------------------------------------------
E|---------------------------------------------------------------------


e|---------------------------------------------------------------------
B|--------------------12-----------12-------------12-------------------
G|13h14p13---11-13-14----14--13-14-----14-13-11-------14-13-11--13-14--
D|---------------------------------------------------------------------
A|---------------------------------------------------------------------
E|---------------------------------------------------------------------


e|--------------------------------------------------------------------------
B|-------------------10--9--------------------------------------------------
G|---------------11--------11-9------11--9----------------------------------
D|---------9-11------------------11--------12-11--9--------------9--8~------
A|-9-11-12-------------------------------------------12--11--12-------------
E|--------------------------------------------------------------------------



e|-----------------14--17--16-14-12------14--12------------------------------------
B|----------12-14--------------------14---------15-14--12--------------12--11--14~~
G|-11-13-14------------------------------------------------14--13--14--------------
D|---------------------------------------------------------------------------------
A|---------------------------------------------------------------------------------
E|---------------------------------------------------------------------------------


e|-----------------14------------------14------------------14------------------14
B|----------12-14---------------12-14---------------12-14---------------12-14----
G|-11-13-14------------11-13-14------------11-13-14------------11-13-14----------
D|-------------------------------------------------------------------------------
A|-------------------------------------------------------------------------------
E|-------------------------------------------------------------------------------


Repeat as desired?

Login or Register to remove this ad.

4 comments on Forest Maze

Amazing

5

Perfect

Lovely. Just lovely.

5

Lovely. Just lovely.

Kinda Messy D:

5

the tab is really great, but i had to separate the parts in order to make it easier to read. It's kinda confusing at first, so if you could make the first and second guitar separate it would be easier for people to read. GREAT tab tho.

woo

5

i agree that it can be confusing but otherwise great job. 5/5