Booster's Railroad (Super Mario RPG) Guitar Tab

Submitted: Oct 03, 2007 by eddhead (Last updated: Oct 03, 2007)

3.666665
Average: 3.7 (3 votes)
Download | Listen
Game: Super Mario RPG
Composer(s): Yoko Shimomura
Style: Transcription
Series: Mario

AutoScroll: Slow | Medium | Fast
Booster's Railway (My name is Buki) Super Mario RPG: Legend of the Seven
Stars
Super NES 1996

Tabber: "Fast" Eddie Schofield

Original Composer: Yoko Shimomura

Standard Tuning

(b = bend)

e----------------------
B----------------------
G----------------------
D-----4--1b-----0------
A--2---------------2---
E----------------------

For the bend here, you gotta REALLY bend it.

e----------------------
B----------------------
G------------2---------
D----4-1b--------------
A--2------------2------
E----------------------

(This is actually the bass,
but I thought I'd throw it in)

e---------------------------
B---------------------------
G-----------2---------------
D-----4--2-----4--4-2--0----  x2
A--2----------------------0-
E---------------------------

e----------------------
B----------------------
G----------------------
D-----4--1b-----0------
A--2---------------2---
E----------------------

e----------------------
B----------------------
G------------2---------
D----4-1b--------------
A--2------------2------
E----------------------

"Bassoony part"

e-------5-----5--------------
B--5-7----------7-5-7--0-----
G----------------------------
D----------------------------
A----------------------------
E----------------------------

e----------------------------
B--3--4--5----5------0-------
G---------------6------------
D-----------------7----------
A----------------------------
E----------------------------

e-------5-----5--------------
B--5-7----------7-5-7--0-----
G----------------------------
D----------------------------
A----------------------------
E----------------------------

e----------------------------
B--3--4--5----5-7---0--------
G-----------------2----------
D----------------------------
A----------------------------
E----------------------------
*Alternative fretting(see bottom)

e----------------------------
B----------------------------
G-----------2----------------
D-----0--4-----4--4-2--0-----
A--2----------------------0--  X2
E----------------------------

e--------2--5--2--2-0--------
B--0--3----------------3-----
G-------------------------2--
D----------------------------
A----------------------------  X2
E----------------------------

e-------------------------------
B-------------------------------
G-------------------------------
D-------------------------------
A--2--2--2-2--2--2--2-2--0--1---
E--2-----2----2-----------------

I know this part doesn't make a lotta sense if you just play it.
Listen to the midi real close to get what I'm tabbing  ;).

e-------------------------
B-------------------------
G-------------------------
D-------------------------
A--2--2--2-2--2--2--2-2---
E--2-----2----2-----------

Repeat from beginning as desired.

*After finishing the tab, I realized this part can be kinda tricky to play
up to pace,
but I didn't know which fretting to use. Try this:
e----------------------------
B--3--4--5----5-7---0--------
G----------------------------
D-----------------7----------
A----------------------------
E----------------------------

Send all questions/comments/hatred about the tab to [email protected].

Rock OUT LOUD!

(special sig for a special tab)
Login or Register to remove this ad.

3 comments on Booster's Railroad

lol THANK YOU! Finally

lol THANK YOU! Finally sheesh lol

I will practice long and hard

Ooh... You've saved me the

Ooh...

You've saved me the trouble of figuring out this song on my own. Nice work.

Woah, I forgot to enter my

Woah, I forgot to enter my name in the last one.

Anyway, I found that using 9 11 (on G) 7 (on D) and then O (on B) works better as... An alternate alternate for that tricky part.