Guile's Theme (Street Fighter 2) Bass Tab

Submitted: Oct 21, 2007 by Yamato (Last updated: May 07, 2008)

5
Average: 5 (2 votes)
Download | Listen
Game: Street Fighter 2
Composer(s): Yoko Shimomura
Style: Transcription

AutoScroll: Slow | Medium | Fast
     H        S S S S S S S S    H        S S S S S S S S  
G||---------------0-----------|---------------0-1---1---1-|
D||-------------3---3-1-0-----|---------------------------|
A||--3--------------------3-1-|---------------------------|
E||---------------------------|--4----------4-------------|


  S S S Q    S S S S S S S S S    S S S S S S S S S S S S S S S S  
-------------------------------|------3-5---3-5-------0-----------|
-------------------------------|--------------------3---3-1-0-----|
---------------------------1---|--3-------------3-------------3-1-|
--1-1---1----3---3---3-3-------|----------------------------------|


  S S S S S S S S S S S S S S S S    S S S Q    S S S S S S S S S  
------0-1---0-1-------0-1---1---1-|-------------------------------|
----------------------------------|-------------------------------|
----------------------------------|---------------------------1---|
--4-------------4---4-------------|--1-1---1----3---3---3-3-------|


  S S S S Q    E  S S S E.     S S S S Q    E  S S S E.   
----------------------------|----------------------------|
----------------------------|----------------------------|
--3-3---3-3-------3---3-3---|----------------------------|
----------------------------|--4-4---4-4-------4---4-4---|


  S S S S Q    E  S S S E.     S S E  Q    S S S S S S S S  
----------------------------|----------------------0-------|
----------------------------|----------------0-1-3---3-1---|
--1-1---1-1-------1---1-1---|----------------------------1-|
----------------------------|--3-3----3--------------------|


  S S S S Q    E  S S S E.     S S S S Q    E  S S S E.   
----------------------------|----------------------------|
----------------------------|----------------------------|
--3-3---3-3-------3---3-3---|----------------------------|
----------------------------|--4-4---4-4-------4---4-4---|


  S S S S Q    E  S S S E.     S S E  Q    S S S S S S S S  
----------------------------|----------------------0-------|
----------------------------|----------------0-1-3---3-1---|
--1-1---1-1-------1---1-1---|----------------------------1-|
----------------------------|--3-3----3--------------------|


  S E  S S S S S Q    E  S S    S E  S S S S S Q    E  S S  
---------------------------0-|---------------------------0-|
-------------------------3---|-------------------------3---|
-----------------------------|--1----1-1-1---1-1-----------|
--4----4-4-4---4-4-----------|-----------------------------|


  S S S Q.     S S S Q       S S S Q    E  S S S S S S S  
--------------------------|----------------------0-------|
--------------------------|------------------1-3---3-0---|
--3-1---3--------3-3-3----|--1-3---3-------3-----------1-|
--------------------------|------------------------------|


  S E  S S S S S Q    E  S S    S E  S S S S S Q    E  S S  
---------------------------0-|---------------------------0-|
-------------------------3---|-------------------------3---|
-----------------------------|--1----1-1-1---1-1-----------|
--4----4-4-4---4-4-----------|-----------------------------|


  S S S Q.     S S S Q       S S S S S S E.  S S S S S S S  
--------------------------|------------------------0-------|
--------------------------|--------------------1-3---3-0---|
--3-1---3--------3-3-3----|--3---1-3---1-3---3-----------1-|
--------------------------|--------------------------------|


  S S S Q.     S S E  S E     E  S S E  S E.  S S S S S S  
---------------------------|------------------------------|
------------------------1--|--L----3----3-----3---1---1-3-|
--1-3---3--------3----3----|------------------------------|
---------------------------|------------------------------|


  S S S Q.     T T E  S S S S    E  S S S S S S S E  S S S S S  
------------------------------|--------------------------------|
----------------------------1-|--L----1-1---1---1----1---1---1-|
----1---1------L---1----3-----|--------------------------------|
--4---------------------------|--------------------------------|


  E.  S S S S S Q    E  S S    E.  S S S S S Q    E  S S  
------------------------0-1-|----------------------------|
----------------------------|----------------------------|
----------------------------|------1---1---1-1-------1-1-|
--3---4---4---4-4-----------|--4-------------------------|


  S E  Q    S S S E  S E.     S S S Q    S S S S S S S S S  
---------------------------|-----------------------0-------|
---------------------------|-------------------1-3---3-1---|
--1----3----L---3----3-----|--1-3---3----L---3-----------1-|
---------------------------|-------------------------------|


  E.  S S S S S Q    E  S S    E.  S S S S S Q    E  S S  
------------------------0-1-|----------------------------|
----------------------------|----------------------------|
----------------------------|------1---1---1-1-------1-1-|
--3---4---4---4-4-----------|--4-------------------------|


  S E  Q    S S S E  Q       S S S Q    S S S S S S S S S    
--------------------------|-----------------------0--------||
--------------------------|-------------------1-3---3-1---*||
--1----3----L---3----3----|--1-3---3----L---3-----------1-*||
--------------------------|--------------------------------||


  H        S S S S S S S S    H        S S S S S S S S  
---------------0-----------|---------------0-1---1---1-|
-------------3---3-1-0-----|---------------------------|
--3--------------------3-1-|---------------------------|
---------------------------|--4----------4-------------|


  S S S Q    S S S S S S S S S    S S S S S S S S S S S S S S S S  
-------------------------------|------3-5---3-5-------0-----------|
-------------------------------|--------------------3---3-1-0-----|
---------------------------1---|--3-------------3-------------3-1-|
--1-1---1----3---3---3-3-------|----------------------------------|


  S S S S S S S S S S S S S S S S    S S S Q    S S S S S S S S S  
------0-1---0-1-------0-1---1---1-|-------------------------------|
----------------------------------|-------------------------------|
----------------------------------|---------------------------1---|
--4-------------4---4-------------|--1-1---1----3---3---3-3-------|


  S S S S Q    E  S S S E.     S S S S Q    E  S S S E.   
----------------------------|----------------------------|
----------------------------|----------------------------|
--3-3---3-3-------3---3-3---|----------------------------|
----------------------------|--4-4---4-4-------4---4-4---|


  S S S S Q    E  S S S E.     S S E  Q    S S S S S S S S  
----------------------------|----------------------0-------|
----------------------------|----------------0-1-3---3-1---|
--1-1---1-1-------1---1-1---|----------------------------1-|
----------------------------|--3-3----3--------------------|


  W                  
-------------------||
-------------------||
-------------------||
-------------------||




Duration Legend
---------------
W - whole
H - half
Q - quarter
E - 8th
S - 16th
T - 32nd
X - 64th
. - note dotted
|-n-|  - n-tuplets
Login or Register to remove this ad.