Ads

High Tension Wire (Seiken Densetsu 3) Bass Tab

Submitted: Mar 18, 2009 by auriplane (Last updated: Nov 29, 2010)

5
Average: 5 (1 vote)
Download | Listen
Game: Seiken Densetsu 3
Composer(s): Hiroki Kikuta
Style: Transcription
Series: Mana

AutoScroll: Slow | Medium | Fast
              High Tension Wire - Seiken Densetsu 3 BASS TAB
                           Song by Hiroki Kikuta

                  Tabbed by auriplane ([email protected])

I'm not entirely sure whether playing the E and F as 5 and 6 on the B
string are teh easiest way--if you think it's easier playing them as 
0 and 1 on the E, play them that way :-)  But this is a little easier
for me, because I have trouble stretching without tensing up when I'm
playing fast.

The intro is in 3/4 time, and the rest is in 4/4 time.

Five-string bass, standard tuning.

    [A]  Intro

G |------------|------------|------------|------------|
D |------------|----5-----5-|----5-----5-|----5-----5-|
A |------------|0-5---3-5---|0-5---3-5---|0-5---3-5---|
E |------------|------------|------------|------------|
B |------------|------------|------------|------------|

    [B]  Repeat this section twice.

G |------------0-1-|2---------------|------------0-1-|2---------------| \
D |----------------|--2---------0-5-|----------------|--2---------0-5-|  \
A |0---0-5---5-----|----------------|0---0-5---5-----|----------------|   |
E |----------------|------3---2-----|----------------|------3---2-----|   |
B |----------------|----------------|----------------|----------------|   |
                                                                          | x2
G |------------0-1-|2---------------|----------------|----------------|   |
D |----------------|--2-------------|----------------|----3-----------|   |
A |0---0-5---5-----|----------3-----|----3-------5---|--3-------5-2---|   |
E |----------------|------3-------3-|------3---3-----|------3-3-----3-|  /
B |----------------|------------4---|6-------------5-|6---------------| /

G |----------------|----------------|----------------|----------------|
D |----3-----5-----|----------------|----3-----5-----|----------------|
A |------------5---|0-5-7-5---4-----|------------5---|0-5-7-0---0-7-0-|
E |------3-------3-|------------5---|------3-------3-|----------------|
B |6---------------|--------------5-|6---------------|----------------|

G |----------------|----------------|----------------|----------------|
D |----3-----5-----|----------7-----|----2-3---------|----------------|
A |------------5---|0-5-7-5-4---7-0-|3-5-------------|----------------|
E |------3-------3-|----------------|----------------|----------------|
B |6---------------|----------------|----------------|----------------|

    [C]

    Rest for eight bars here.

G |----------------|----------------| \
D |------0-1-2-4---|------0---2-5---|  |
A |0-0-4-----------|----2-----------|  | x4
E |--------------3-|--3-----------3-|  |
B |----------------|----------------| /

G |----------------|----------------|
D |------------3---|------0---2-5---|
A |------3---------|----2-----------|
E |1-------------1-|3-3-----------3-|
B |----------------|----------------|

    Repeat back to B.





Four-string version, DROP-D TUNING

    [A]  Intro

G |------------|------------|------------|------------|
D |------------|----5-----5-|----5-----5-|----5-----5-|
A |------------|0-5---3-5---|0-5---3-5---|0-5---3-5---|
D |------------|------------|------------|------------|

    [B]  Repeat this section twice.

G |----------------|----------------|----------------|----------------| \
D |------------5-6-|7-------------5-|------------5-6-|7-------------5-|  \
A |------5---5-----|--7---------5---|------5---5-----|--7---------5---|   |   
D |7---7-----------|------5---4-----|7---7-----------|------5---4-----|   |   
                                                                          | x2
G |----------------|----------------|----------------|----------------|   |   
D |------------5-6-|7---------------|----------------|----3-----------|   |   
A |------5---5-----|--7-------3-----|----3-------5---|--3-------5-2---|  /   
D |7---7-----------|------5-----1-5-|3-----5---5---2-|3-----5-5-----5-| / 

G |----------------|----------------|----------------|----------------|
D |----3-----5-----|----------------|----3-----5-----|----------------|
A |------------5---|--5-7-5---4-0---|------------5---|0-5-7-0---0-7-0-|
D |3-----5-------5-|7-------------2-|3-----5-------5-|----------------|

G |----------------|----------------|----------------|----------------|
D |----3-----5-----|----------7-----|----2-3---------|----------------|
A |------------5---|--5-7-5-4---7---|3-5-------------|----------------|
D |3-----5-------5-|7-------------7-|----------------|----------------|

    [C] 

    Rest for eight bars here.

G |----------------|----------------| \
D |------------4---|----------2-5---|  |
A |----4-5-6-7-----|----2-5---------|  | x4
D |7-7-----------5-|--5-----------5-| / 

G |----------------|----------------|
D |------------3---|----------2-5---|
A |------3---------|----2-5---------|
D |3-------------3-|5-5-----------5-|

    Repeat back to B.

Login or Register to remove this ad.