Ads

The Orphan of Storm (Secret of Mana) Bass Tab

Submitted: Sep 29, 2008 by auriplane (Last updated: Dec 04, 2010)

0
Download | Listen
Game: Secret of Mana
Composer(s): Hiroki Kikuta
Style: Transcription
Series: Mana

This song is also called Victory

AutoScroll: Slow | Medium | Fast
                   Secret of Mana - Victory BASS TAB
                         Song by Hiroku Kikuta

                Tabbed by auriplane ([email protected])


This song starts out in 4/4 time, then switches to 12/8 time.
This one's for six string bass, though you can play the intro
on a four-string.

The third line of the intro should be played fingerstyle, with a
gentle tone.  Everything else, slap or use a pick.

Six-string bass, standard tuning.

    Part A (Repeat 2x)

C |----------------|----------------|----------------|----------------|
G |----------------|----------------|----------------|----------------|
D |----------------|----------------|----------------|----------------|
A |3-----333-3-----|1-----111-1---1-|3-----333-3-----|----------------|
E |----------------|----------------|----------------|1-----111-1---1-|
B |----------------|----------------|----------------|----------------|

C |----------------|----------------|----------------|----------------|
G |----------------|----------------|----------------|----------------|
D |----------------|--------------0-|1-----111-1-----|1-----111-1---1-|
A |3-----333-3-----|1-----111-1-----|----------------|----------------|
E |----------------|----------------|----------------|----------------|
B |----------------|----------------|----------------|----------------|

C |----------------|----------------|----------------|----------------|
G |------------0-1-|3---------------|----------------|----------------|
D |3---------------|------------3---|1-----------3-4-|5---------------|
A |----------------|----------------|----------------|--------3-------|
E |----------------|----------------|----------------|----------------|
B |----------------|----------------|----------------|----------------|

C |----------------|----------------|----------------|----------------|
G |----------------|----------------|----------------|----------------|
D |----------------|----------------|----------------|----------------|
A |----------------|1-----111-1---1-|3-----333-3-----|3-----333-3---3-|
E |4-----444-4-----|----------------|----------------|----------------|
B |----------------|----------------|----------------|----------------|

    Part B: Switch to 12/8 time!

    Rest for six measures.

C |------------------------|------------------------|
G |------------------5-----|------------------------|
D |5-----------5-------5-3-|------------------------|
A |------3-----------------|3-----------------------|
E |------------------------|------3-----------------|
B |------------------------|------------1-----------|

    Part C

C |------------------------|------------------------|
G |------------------------|------------------------|
D |------------------------|------------------------|
A |------------------------|1-----1-1-1-1---1---1---|
E |4-----4-4-4-4---4---4---|------------------------|
B |------------------------|------------------------|

C |------------------------|------------------------|
G |------------------------|------------------------|
D |------------------------|------------------------|
A |3-----3-3-3-2-----2-2-2-|1-----1-1-1-0---0---0---|
E |------------------------|------------------------|
B |------------------------|------------------------|

C |------------------------|------------------------|
G |------------------------|------------------------|
D |------------------------|------------------------|
A |------------------------|1-----1-1-1-1-------1---|
E |4-----4-4-4-4---4---4---|----------------1-------|
B |------------------------|------------------------|

C |------------------------|------------------------|
G |------------------------|------------------------|
D |------------------------|------------------------|
A |--------------------1-3-|4-----4-6-4-3-----------|
E |4-----4---4-3-----3-----|------------------3-----|
B |--------4---------------|------------------------|

    Part D

C |--------------------3---|--------3---------------|
G |----------------3-------|1-----1---0-------------|
D |--------1-3-1-----------|------------3-----------|
A |4-----4-----------------|----------------3-------|
E |------------------------|--------------------1---|
B |------------------------|------------------------|

C |------------------------|------------------------|
G |------------------------|------------------------|
D |------------------------|------------------------|
A |1-----1-1-1-1-----1-1---|------------------------|
E |----------------------4-|2-----2-2-2-2-----4-6---|
B |------------------------|----------------------4-|

C |------------------------|------------------------|
G |------------------------|------------------------|
D |------------------------|3-----3-3-3-3-----3-----|
A |--------------------1-3-|--------------------3-1-|
E |------1-1-1-1-----1-----|------------------------|
B |6-----------------------|------------------------|
Login or Register to remove this ad.