Ads

The Dark Star (Secret of Mana) Guitar Tab

Submitted: Feb 23, 2008 by dma83 (Last updated: Sep 11, 2009)

5
Average: 5 (4 votes)
Download | Listen
Game: Secret of Mana
Composer(s): Hiroki Kikuta
Style: 2 or more instruments, Transcription
Series: Mana

AutoScroll: Slow | Medium | Fast
SNES - Secret of Mana - The Dark Star
Tabbed by Steve Havens, [email protected]

Part A: Intro

|--------------1--0---------------------------------|
|--3--------3--------1------------------------------|
|-----0--2--------------0--2-----------0------------|
|-----------------------------0--2--3----3-2--------|
|-------------------------------------------------3-|
|---------------------------------------------------|
|                                                   |
|---------------------------------------------------|
|---------------------------------------------------|
|---------------------------------------------------|
|-------------------------------------12------------|
|-12----------14----------15----------10------------|
|-10----------12----------13------------------------|


|--------------1--0-----3--1--0--------1-0----------|
|--3--------3--------1-----------1--3------3--------|
|-----0--2------------------------------------------|
|---------------------------------------------------|
|---------------------------------------------------|
|---------------------------------------------------|
|                                                   |
|---------------------------------------------------|
|---------------------------------------------------|
|-------------------------12----------14------------|
|-14----------15----------10----------12------------|
|-12----------13------------------------------------|
|---------------------------------------------------|


|-----------------13--12-------------------------------------------|
|-15----------15----------13---------------------------------------|
|-----12--14------------------12--14--------------12---------------|
|-------------------------------------12--14--15-----15-14---------|
|---------------------------------------------------------------15-|
|------------------------------------------------------------------|
|                                                                  |
|------------------------------------------------------------------|
|-------------------------------------------------15---------------|
|-14--------------16--------------17--------------12---------------|
|-12--------------14--------------15-------------------------------|
|------------------------------------------------------------------|
|------------------------------------------------------------------|
|                                                                  |
|------------------------------------------------------------------|
|------------------------------------------------------------------|
|------------------------------------------------------------------|
|-12------------------------------12-------------------------------|
|------------------------------------------------------------------|
|------------------------------------------------------------------|


|-----------------13--12------15--13--12----------13-12------------|
|-15----------15----------13--------------13--15--------15---------|
|-----12--14-------------------------------------------------------|
|------------------------------------------------------------------|
|------------------------------------------------------------------|
|------------------------------------------------------------------|
|                                                                  |
|---------------------------------15--------------17---------------|
|-17--------------18--------------13--------------15---------------|
|-14--------------15-----------------------------------------------|
|------------------------------------------------------------------|
|------------------------------------------------------------------|
|------------------------------------------------------------------|
|                                                                  |
|------------------------------------------------------------------|
|------------------------------------------------------------------|
|------------------------------------------------------------------|
|-12------------------------------12-------------------------------|
|------------------------------------------------------------------|
|------------------------------------------------------------------|


Part B (Play twice)

|------------------------------------|--------------------------------------|
|-----------5------------------------|--------------6--5--------------------|
|------7---------7---------5----7----|------5----7--------7-------5----7----|
|-7-------------------7--------------|-7---------------------7--------------|
|------------------------------------|--------------------------------------|
|------------------------------------|--------------------------------------|
|                                                                           |
|------------------------------------|--------------------------------------|
|------------------------------------|--------------------------------------|
|------------------------------------|--------------------------------------|
|------------------------------------|--------------------------------------|
|-5-------------------5---------3----|-5---------------------5---------3----|
|-----------3------------------------|-----------3--------------------------|
|                                                                           |
|------------------------------------|--------------------------------------|
|------------------------------------|--------------------------------------|
|------------------------------------|--------------------------------------|
|---------------------7--------------|-----------------------7--------------|
|------------------------------------|--------------------------------------|
|------------------------------------|--------------------------------------|


Part C (Play twice)

|-22-------------|-22-------------|-22-------------|-22-------------|
|---------20--22-|---------20--22-|---------20--22-|---------20--22-|
|-----19---------|-----19---------|-----19---------|-----19---------|
|----------------|----------------|----------------|----------------|
|----------------|----------------|----------------|----------------|
|----------------|----------------|----------------|----------------|
|                                                                   |
|----------------|----------------|----------------|----------------|
|----------------|----------------|----------------|----------------|
|-14-------------|-12-------------|-14-------------|----------------|
|----------------|----------------|----------------|-14-------------|
|----------------|----------------|----------------|----------------|
|----------------|----------------|----------------|----------------|


|-22-------------|-22-------------|-22-------------|-22-------------|
|---------20--22-|---------20--22-|---------20--22-|---------20--22-|
|-----19---------|-----19---------|-----19---------|-----19---------|
|----------------|----------------|----------------|----------------|
|----------------|----------------|----------------|----------------|
|----------------|----------------|----------------|----------------|
|                                                                   |
|----------------|----------------|----------------|----------------|
|----------------|----------------|----------------|----------------|
|-11------12-----|-15-------------|-14-------------|----------------|
|----------------|----------------|----------------|-14-------15----|
|----------------|----------------|----------------|----------------|
|----------------|----------------|----------------|----------------|


Part D

|-19-------------|-19-------------|-19-------------|-19-------------|
|---------17--19-|---------17--19-|---------17--19-|---------17--19-|
|-----16---------|-----16---------|-----16---------|-----16---------|
|----------------|----------------|----------------|----------------|
|----------------|----------------|----------------|----------------|
|----------------|----------------|----------------|----------------|
|                                                                   |
|----------------|----------------|----------------|----------------|
|----------------|----------------|----------------|----------------|
|-11-------------|----------------|----------------|----------------|
|----------------|----------------|----------------|----------------|
|----------------|----------------|----------------|----------------|
|----------------|----------------|----------------|----------------|
|                                                                   |
|----------------|----------------|----------------|----------------|
|----------------|----------------|----------------|----------------|
|----------------|----------------|---------9------|-11-------------|
|--9-------------|-11-------------|--9-------------|----------------|
|----------------|---------12-----|----------------|----------------|
|----------------|----------------|----------------|----------------|


Repeat from Part B.
Login or Register to remove this ad.

1 comment on The Dark Star

Sounds great man! The

5

Sounds great man! The second part of the intro sounds REALLY nice on electric. I honestly didn't expect to find tabs for this tune, but I'm glad you hooked us up!