Ads

Tell a Strange Tale (Secret of Mana) Guitar Tab

Submitted: May 13, 2008 by TrangOul (Last updated: Dec 04, 2010)

5
Average: 5 (3 votes)
Download | Listen
Game: Secret of Mana
Composer(s): Hiroki Kikuta
Style: 2 or more instruments, Arrangement, Fingerstyle
Series: Mana

This song is also called Empire

AutoScroll: Slow | Medium | Fast
Tell a Strange Tale
Secret of Mana
Composed by Hiroki Kikuta
Arranged by Marcus Kasperski



Guitar 1
     E  E  E  E  E  E  Q       E  E  E  E  E  E  Q     
E||--------0--2-----2-------|-----------------0-------|
B||--3-----------------3----|--1--------3--------1----|
G||-------------------------|--------0----------------|
D||--0-----------------0----|-------------------------|
A||-----------0-------------|--3-----------------3----|
E||-------------------------|-----------3-------------|


  E  E  E  E  E  E  Q       E  E  E  E  E  E  E  E     E  E  E  E  E  E  Q     
-----------------1--0----|-----------3--2-----------|--------0--2-----2-------|
--------1----------------|-----3-----------3--------|--3-----------------3----|
-------------------------|--------2-----------2-----|-------------------------|
--3--------2-------------|--0--------------------4--|--0-----------------0----|
--1--------0-------------|--------------------0-----|-----------0-------------|
--------------------3----|--------------------------|-------------------------|


  E  E  E  E  E  E  Q       E  E  E  E  E  E  Q       E  E  E  E  E  E  E  E   
-----------------0-------|-----------------1--0----|-----------3--2-----------|
--1--------3--------1----|--------1----------------|-----3-----------3--------|
--------0----------------|-------------------------|--------2-----------2-----|
-------------------------|--3--------2-------------|--0--------------------4--|
--3-----------------3----|--1--------0-------------|--------------------0-----|
-----------3-------------|--------------------3----|--------------------------|


    E  E  E  E  E  E  Q       E  E  E  E  E  E  Q       E  E  E  E  E  E  Q     
|---------0--2-----2-------|-----------------0-------|-----------------1--0----|
|---3-----------------3----|--1--------3--------1----|--------1----------------|
|*-------------------------|--------0----------------|-------------------------|
|*--0-----------------0----|-------------------------|--3--------2-------------|
|------------0-------------|--3-----------------3----|--1--------0-------------|
|--------------------------|-----------3-------------|--------------------3----|


  E  E  E  E  E  E  E  E     E  E  E  E  E  E  Q       E  E  E  E  E  E  Q     
-----------3--2-----------|--------0--2-----2-------|-----------------0-------|
-----3-----------3--------|--3-----------------3----|--1--------3--------1----|
--------2-----------2-----|-------------------------|--------0----------------|
--0--------------------4--|--0-----------------0----|-------------------------|
--------------------0-----|-----------0-------------|--3-----------------3----|
--------------------------|-------------------------|-----------3-------------|


  E  E  E  E  E  E  Q       E  E  E  E  E  E  E  E     E  E  E  E  E  E  Q     
-----------------1--0----|-----------3--2-----------|--------0--2-----2-------|
--------1----------------|-----3-----------3--------|--3-----------------3----|
-------------------------|--------2-----------2-----|-------------------------|
--3--------2-------------|--0--------------------4--|--0-----------------0----|
--1--------0-------------|--------------------0-----|-----------0-------------|
--------------------3----|--------------------------|-------------------------|


  E  E  E  E  E  E  Q       E  E  E  E  E  E  Q       E  E  E  E  E  E  E  E   
-----------------0-------|-----------------1--0----|-----------3--2-----------|
--1--------3--------1----|--------1----------------|-----3-----------3--------|
--------0----------------|-------------------------|--------2-----------2-----|
-------------------------|--3--------2-------------|--0--------------------4--|
--3-----------------3----|--1--------0-------------|--------------------0-----|
-----------3-------------|--------------------3----|--------------------------|


  E  E  E  E  E  E  Q       E  E  E  E  E  E  Q       E  E  E  E  E  E  Q     
--------0--2-----2-------|-----------------0-------|-----------------1--0----|
--3-----------------3----|--1--------3--------1----|--------1----------------|
-------------------------|--------0----------------|-------------------------|
--0-----------------0----|-------------------------|--3--------2-------------|
-----------0-------------|--3-----------------3----|--1--------0-------------|
-------------------------|-----------3-------------|--------------------3----|


  E  E  E  E  E  E  E  E     Q    E  Q    E  E  E     E  E  E  Q    E  E  E   
-----------3--2-----------|------------------------|-------------------------|
-----3-----------3--------|------------------------|-------------------1-----|
--------2-----------------|----------0----------L--|-----------0----2-----2--|
--0--------------------0--|--2----3----------------|--2-----3----------------|
--------------------3-----|--3-------3-------------|--3--3-----3-------------|
--------------------------|---------------3--------|----------------3--------|


  Q    E  S S E  E  Q       E  E  E  Q    E  Q       Q    E  Q    E  E  E   
-------------------------|------------------------|------------------------|
-------------------------|------------------------|------------------------|
--0----------------------|------------------------|----------0----------L--|
----------3-2-3----------|--L---------------------|--2----3----------------|
--1-------1--------------|--1--1-----1------------|--3-------3-------------|
-----------------1-------|----------------1-------|---------------3--------|


  E  E  E  Q    E  E  E     Q    E  S S E  E  Q       E  E  E  E  Q    Q     
-------------------------|-------------------------|------------------------|
-------------------1-----|-------------------------|------------------------|
-----------0----2-----2--|--0----------------------|------------------------|
--2-----3----------------|----------3-2-3----------|--L-----------2----3----|
--3--3-----3-------------|--1-------1--------------|--1--1-----1-------1----|
----------------3--------|-----------------1-------|--------------1---------|


  Q.     E  Q    E  S S    E  E  E  E  Q    Q       Q.     Q.     E  E   
------------------------|------------------------|----------------------|
---------0--0-----------|------------------------|----------------------|
--------------------0---|--0---------------------|--0------2---------L--|
--2-------------------4-|--------------0----2----|----------------------|
--0------0--------------|--0--0-----0------------|----------------------|
------------------------|------------------------|--3------3------------|


  E  E  E  E  Q    Q       Q    E  S S E  E  E  S S    E  E  Q    Q    E  E   
------------------------|---------------------------|------------------------|
-------------------0----|--1------------------------|------------------------|
--L-----------2---------|----------2-0-2------------|-------------0----3-----|
------------------------|-----------------------3-2-|--3---------------0--1--|
-------------------0----|--1-------1----------------|--1--1------------------|
--3--3-----3--3---------|-----------------1---------|------------------------|


  Q    E  S S Q    E  S S    H        Q    Q       Q    E  Q    E  Q     
--------------------------|---------------------|-----------------------|
--------------------------|---------------------|-----------------------|
--1-----------------------|----------------0----|-----------------------|
--3-------3-1-3-------1-0-|--1--------3---------|--0--------------------|
--------------------------|----------------1----|---------------2-------|
-------------------1------|---------------------|--0-------0-------0----|


  E  E  E  E  E  Q    E     H.           E  E     E  E  E  E  E  E  E  E     
-------------------------|---------------------|---------------------------||
-------------------------|---------------------|---------------------------||
-------------------------|---------------------|--0--2--0-----------------*||
--L-----------0-------2--|--2------------L--4--|-----------4--2-----------*||
-------------------------|---------------------|-----------------4--2--0---||
--0--0-----0-------------|---------------------|---------------------------||


  ^                  
  W                  
--2----------------||
--3----------------||
--2----------------||
--0----------------||
-------------------||
-------------------||




------------------------------------------------------------




Guitar 2
     Q    E  H        E     E  E  E  Q    E  Q       E  E  E  Q    E  Q     
E||-------0--2--------L--|--0--2--3--3----2--0----|-----0------------------|
B||--3-------3--------L--|--1--3--5--5----3--1----|--3--1--3--1------------|
G||-------2--------------|------------------------|--3-----3--2----0--2----|
D||--4-------------------|------------------------|----------------2--4----|
A||----------------------|------------------------|------------------------|
E||----------------------|------------------------|------------------------|


  Q.     H        E     Q    E  H        E     E  E  E  Q    E  Q     
---------------------|-------0--2--------L--|--0--2--3--3----2--0----|
---------3--------L--|--3-------3--------L--|--1--3--5--5----3--1----|
--2------------------|-------2--------------|------------------------|
--5------4--------L--|--4-------------------|------------------------|
---------------------|----------------------|------------------------|
---------------------|----------------------|------------------------|


  E  E  E  Q    E  Q       Q.     H        E       Q    E  E  E  E  Q     
-----0-----5------------|---------------------||--------0--2--------2----|
--3--1--3--6------------|---------------------||---3---------------------|
--3-----3-------5--7----|--7------7--------L--||*------------------------|
----------------5--7----|--7------7--------L--||*--0----------------0----|
------------------------|---------------------||-----------------0-------|
------------------------|---------------------||-------------------------|


  Q    E  E  E  E  E  E     Q    E  E  E  E  Q       Q    E  E  E  E  E  E   
--3----2--0--------------|------------------------|-------------------------|
----------------------1--|--3---------------------|-------------------------|
-------------------2-----|-------2--0--------2----|-------2-----------------|
-------------------------|--0---------------------|--2-------4--------0--L--|
--3----------------3-----|----------------0-------|----------------0--------|
----------------3--------|------------------------|-------------------------|


  Q    E  E  E  E  Q       Q    E  E  E  E  E  E     Q    E  E  E  E  Q     
-------0--2--------2----|--3----2--0--------------|------------------------|
--3---------------------|----------------------1--|--3----------------1----|
------------------------|-------------------2-----|-------2--0-----2-------|
--0----------------0----|-------------------------|--0---------------------|
----------------0-------|--3----------------3-----|----------------0-------|
------------------------|----------------3--------|------------------------|


  Q.     Q    E  E  E     Q    E  E  E  E  Q       Q    E  E  E  E  E  E   
--0--------------------|-------0--2--------2----|--3----2--0--------------|
---------3----------L--|--3---------------------|----------------------1--|
-----------------------|------------------------|-------------------2-----|
--2------0-------0-----|--0----------------0----|-------------------------|
--------------0--------|----------------0-------|--3----------------3-----|
-----------------------|------------------------|----------------3--------|


  Q    E  E  E  E  Q       Q    E  E  E  E  E  E     Q    E  E  E  E  Q     
------------------------|-------------------------|-------0--2--------2----|
--3---------------------|-------------------------|--3---------------------|
-------2--0--------2----|-------2-----------------|------------------------|
--0---------------------|--2-------4--------0-----|--0----------------0----|
----------------0-------|----------------0--------|----------------0-------|
------------------------|-------------------------|------------------------|


  Q    E  E  E  E  E  E     Q    E  E  E  E  Q       Q.     H        E   
--3----2--0--------3--5--|--8----5--3-----1--0----|---------------------|
-------------------------|------------------------|--3------3--------L--|
-------------------------|------------------------|---------------------|
-------------------------|------------------------|--0------0--------L--|
--3----------------3-----|------------------------|---------------------|
----------------3--------|----------------3-------|---------------------|


  Q     E   H        E      Q     E   Q     E   E   E   
--8----10--12--------L--|--------10--12----13--15--13--|
------------------------|--13--------------------------|
------------------------|------------------------------|
------------------------|------------------------------|
------------------------|------------------------------|
------------------------|------------------------------|


   Q.      S S  H           W                   Q     E   H        E   
--12------10-8-10--------|--L----------------|--8----10--12--------L--|
-------------------------|-------------------|------------------------|
-------------------------|-------------------|------------------------|
-------------------------|-------------------|------------------------|
-------------------------|-------------------|------------------------|
-------------------------|-------------------|------------------------|


   Q     E   Q     E   E   E      Q.      S S  H           H        Q     Q     
--------10--12----13--15--13--|--12------10-8-10--------|--L--------8----10----|
--13--------------------------|-------------------------|----------------------|
------------------------------|-------------------------|----------------------|
------------------------------|-------------------------|----------------------|
------------------------------|-------------------------|----------------------|
------------------------------|-------------------------|----------------------|


   W                   W                    W                 
--12----------------|--L----------------|--10----------------|
--------------------|-------------------|--------------------|
--------------------|-------------------|--------------------|
--------------------|-------------------|--------------------|
--------------------|-------------------|--------------------|
--------------------|-------------------|--------------------|


  H         Q     Q        H         H            H        Q     Q     
--L--------10----12----|--13--------12--------|--10--------8----10----|
-----------------------|----------------------|-----------------------|
-----------------------|----------------------|-----------------------|
-----------------------|----------------------|-----------------------|
-----------------------|----------------------|-----------------------|
-----------------------|----------------------|-----------------------|


  H        H           H        Q    Q       W                 
--8--------6--------|--4-------------3----|--3----------------|
--------------------|-----------6---------|-------------------|
--------------------|---------------------|-------------------|
--------------------|---------------------|-------------------|
--------------------|---------------------|-------------------|
--------------------|---------------------|-------------------|


  H.           E  E     H.           E  E     E   E  E   E  E  E  E  E     
--L------------L--5--|--5------------L--7--|--9--10--9-------------------||
---------------------|---------------------|------------10--8--7--5------||
---------------------|---------------------|-------------------------6--*||
---------------------|---------------------|----------------------------*||
---------------------|---------------------|-----------------------------||
---------------------|---------------------|-----------------------------||


   ^                  
   W                  
--10----------------||
---7----------------||
---7----------------||
---0----------------||
--------------------||
--------------------||




------------------------------------------------------------




Guitar 3
     W                   W                   W                 
E||-------------------|-------------------|-------------------|
B||-------------------|-------------------|-------------------|
G||-------------------|-------------------|-------------------|
D||-------------------|-------------------|-------------------|
A||-------------------|-------------------|-------------------|
E||-------------------|-------------------|-------------------|


  W                   W                   W                   W                 
-------------------|-------------------|-------------------|-------------------|
-------------------|-------------------|-------------------|-------------------|
-------------------|-------------------|-------------------|-------------------|
-------------------|-------------------|-------------------|-------------------|
-------------------|-------------------|-------------------|-------------------|
-------------------|-------------------|-------------------|-------------------|


  W                     Q    E  Q.      Q       Q     E  Q.     E  E   
-------------------||---2----3--5------10----|--8---------------------|
-------------------||------------------------|-------10--8---------5--|
-------------------||*-----------------------|------------------7-----|
-------------------||*-----------------------|------------------------|
-------------------||------------------------|------------------------|
-------------------||------------------------|------------------------|


  Q    E  Q.     Q       Q    E  H        E     Q    E  Q.      Q     
----------------------|----------------------|--2----3--5------10----|
--6----5--3-----------|----------------------|-----------------------|
-----------------5----|-------5--2--------L--|-----------------------|
----------------------|--5-------------------|-----------------------|
----------------------|----------------------|-----------------------|
----------------------|----------------------|-----------------------|


  Q     E  Q.     E  E     Q    E  Q    E  Q       W                 
--8---------------------|-----------------------|-------------------|
-------10--8---------5--|--6----8--5----6--5----|-------------------|
------------------7-----|-----------------------|--7----------------|
------------------------|-----------------------|-------------------|
------------------------|-----------------------|-------------------|
------------------------|-----------------------|-------------------|


  Q    E  Q.      Q       Q     E  Q.     E  E     Q    E  Q.     Q     
--2----3--5------10----|--8---------------------|----------------------|
-----------------------|-------10--8---------5--|--6----5--3-----------|
-----------------------|------------------7-----|-----------------5----|
-----------------------|------------------------|----------------------|
-----------------------|------------------------|----------------------|
-----------------------|------------------------|----------------------|


  Q    E  H        E     Q    E  Q.      Q       Q     E   Q.      E   E   
----------------------|--2----3--5------10----|--8----10--12------12--13--|
----------------------|-----------------------|---------------------------|
-------5--2--------L--|-----------------------|---------------------------|
--5-------------------|-----------------------|---------------------------|
----------------------|-----------------------|---------------------------|
----------------------|-----------------------|---------------------------|


   Q     E   Q     E  Q        W                   E  E  E  E  E  E  E  E   
--15----13--12----10--8----|--10----------------|--------3--------3--------|
---------------------------|--------------------|--3--5-----3--5-----3--5--|
---------------------------|--------------------|--------------------------|
---------------------------|--------------------|--------------------------|
---------------------------|--------------------|--------------------------|
---------------------------|--------------------|--------------------------|


  E  E  E  E  E  E  E  E     E  E  E  E  E  E  E  E   
--------3--------3--------|--------------------------|
--3--5-----3--5-----3--5--|-----3--6-----3--6-----3--|
--------------------------|--5--------5--------5-----|
--------------------------|--------------------------|
--------------------------|--------------------------|
--------------------------|--------------------------|


  E  E  E  E  E  E  E  E     E  E  E  E  E  E  E  E   
--------------------------|--------3--------3--------|
-----3--6-----3--6-----3--|--3--5-----3--5-----3--5--|
--5--------5--------5-----|--------------------------|
--------------------------|--------------------------|
--------------------------|--------------------------|
--------------------------|--------------------------|


  E  E  E  E  E  E  E  E     E  E  E  E  E  E  E  E   
--------3--------3--------|--------------------------|
--3--5-----3--5-----3--5--|-----3--6-----3--6-----3--|
--------------------------|--5--------5--------5-----|
--------------------------|--------------------------|
--------------------------|--------------------------|
--------------------------|--------------------------|


  E  E  E  E  E  E  E  E     E  E  E  E  E  E  E  E   
--------------------------|--------------------------|
-----3--6-----3--6-----3--|--------5--------5--------|
--5--------5--------5-----|--4--5-----4--5-----4-----|
--------------------------|-----------------------5--|
--------------------------|--------------------------|
--------------------------|--------------------------|


  E  E  E  E  E  E  E  E     W                   H        Q    Q     
--------------------------|-------------------|---------------------|
--------5--------5--------|-------------------|---------------------|
--4--5-----4--5-----4--2--|-------------------|---------------------|
--------------------------|--0----------------|-----------0----2----|
--------------------------|-------------------|---------------------|
--------------------------|-------------------|---------------------|


  E  E  E  E  E  E  E  E     E  E  E  E  E  E  E  E     W                 
--------------------------|--------------------------|-------------------|
--------------------------|--------------------------|-------------------|
--------5--------5--------|--------5--------5--------|-------------------|
--5--7-----5--7-----5--7--|--5--7-----5--7-----5--8--|--3----------------|
--------------------------|--------------------------|--5----------------|
--------------------------|--------------------------|-------------------|


  W                   W                   H         E   E   E   E   
-------------------|-------------------|-----------12--10----------|
-------------------|-------------------|-------------------12------|
-------------------|-------------------|------------0----------12--|
--1----------------|--2----------------|------------0--------------|
--3----------------|--5----------------|---------------------------|
-------------------|-------------------|---------------------------|


                                                    ^                  
   W                   E  E  E  E  E  E  E  E       W                  
--------------------|---------------------------||-------------------||
--10----------------|--2-----2------------------||--3----------------||
---9----------------|-----------2--------------*||--2----------------||
--------------------|-----------------4--0-----*||--0----------------||
---0----------------|-----------------------4---||-------------------||
--------------------|---------------------------||-------------------||




Duration Legend
---------------
W - whole
H - half
Q - quarter
E - 8th
S - 16th
. - note dotted
|-n-|  - n-tuplets


Tablature Legend
----------------
L - tied note
Login or Register to remove this ad.

2 comments on Tell a Strange Tale

Addition (Guitar 2): In the

Addition (Guitar 2): In the middle part it would be easier to play the C on fret 13 on the B-string instead of fret 8 on the E-string.

I like the way these come

5

I like the way these come together. Nice work! I haven't recorded them together but I trust a midi created by you.

Imo there are a number of places in Gtr III where you could change the string played on to maintain a more consistent hand position. For example, the first three notes themselves could be played as 7, 8, 10 on the B string. Although I admit I kind of enjoy the slide up, makes me feel more like an electric guitarist. :p