Ads

I Won't Forget (Secret of Mana) Guitar Tab

Submitted: Oct 03, 2007 by Calebelijah (Last updated: Sep 20, 2009)

5
Average: 5 (1 vote)
Download | Listen
Game: Secret of Mana
Composer(s): Hiroki Kikuta
Style: 2 or more instruments, Transcription
Series: Mana

Click here for a video example.

AutoScroll: Slow | Medium | Fast
Flute
     W                    H         H            H.            Q
E||-------------------|--12------------------|--15------------------|
B||-------------------|----------------------|----------------13----|
G||-------------------|------------14--------|----------------------|
D||-------------------|----------------------|----------------------|
A||-------------------|----------------------|----------------------|
E||-------------------|----------------------|----------------------|

   H         Q     Q        W                    H         H
------------------12----|--------------------|--12------------------|
--15--------15----------|--------------------|----------------------|
------------------------|--14----------------|------------14--------|
------------------------|--------------------|----------------------|
------------------------|--------------------|----------------------|
------------------------|--------------------|----------------------|

   H.            Q        Q     Q     Q     Q        H.            Q
--15------------------|--------12----------------|----------------12----|
----------------13----|--15----------15----13----|--15------------------|
----------------------|--------------------------|----------------------|
----------------------|--------------------------|----------------------|
----------------------|--------------------------|----------------------|
----------------------|--------------------------|----------------------|

   H         H            H.            Q        Q     Q     Q     Q
--13------------------|--17------------13----|--15----12----------12----|
------------13--------|----------------------|--------------15----------|
----------------------|----------------------|--------------------------|
----------------------|----------------------|--------------------------|
----------------------|----------------------|--------------------------|
----------------------|----------------------|--------------------------|

   H.            Q        Q     Q     Q     Q        H.            Q
----------------------|--------------------------|----------------------|
--13------------13----|--16----13----------13----|----------------------|
----------------------|--------------15----------|--12------------10----|
----------------------|--------------------------|----------------------|
----------------------|--------------------------|----------------------|
----------------------|--------------------------|----------------------|

   W                   W                      H         H
--------------------|-------------------||---12------------------|
--------------------|-------------------||-----------------------|
--12----------------|--L----------------||*------------14--------|
--------------------|-------------------||*----------------------|
--------------------|-------------------||-----------------------|
--------------------|-------------------||-----------------------|

   H.            Q        H         Q     Q        W
--15------------------|------------------12----|--------------------|
----------------13----|--15--------15----------|--------------------|
----------------------|------------------------|--14----------------|
----------------------|------------------------|--------------------|
----------------------|------------------------|--------------------|
----------------------|------------------------|--------------------|

   H         H            H.            Q        Q     Q     Q     Q
--12------------------|--15------------------|--------12----------------|
----------------------|----------------13----|--15----------15----13----|
------------14--------|----------------------|--------------------------|
----------------------|----------------------|--------------------------|
----------------------|----------------------|--------------------------|
----------------------|----------------------|--------------------------|

   H.            Q        H         H            H.            Q
----------------12----|--13------------------|--17------------13----|
--15------------------|------------13--------|----------------------|
----------------------|----------------------|----------------------|
----------------------|----------------------|----------------------|
----------------------|----------------------|----------------------|
----------------------|----------------------|----------------------|

   Q     Q     Q     Q        H.            Q        Q     Q     Q     Q
--15----12----------12----|----------------------|--------------------------|
--------------15----------|--13------------13----|--16----13----------13----|
--------------------------|----------------------|--------------15----------|
--------------------------|----------------------|--------------------------|
--------------------------|----------------------|--------------------------|
--------------------------|----------------------|--------------------------|

   H.            Q        W                   W
----------------------|--------------------|---------------------||
----------------------|--------------------|---------------------||
--12------------10----|--12----------------|--L----------------*-||
----------------------|--------------------|-------------------*-||
----------------------|--------------------|---------------------||
----------------------|--------------------|---------------------||

Duration Legend
---------------
W - whole
H - half
Q - quarter
E - 8th
S - 16th
T - 32nd
X - 64th
. - note dotted
|-n-|  - n-tuplets





Rhodes Piano
     W                   Q    Q    Q    Q       Q    Q    Q    Q
E||-------------------|----------------------|--3-------------------|
B||-------------------|------------0----1----|-------1----0---------|
G||-------------------|----------------------|----------------------|
D||-------------------|-------2--------------|-----------------2----|
A||-------------------|--0-------------------|----------------------|
E||-------------------|----------------------|----------------------|

  Q    Q    Q    Q       Q    Q    Q    Q       Q    Q    Q    Q
----------------------|--5-------------------|----------------------|
------------5----7----|-------7----5---------|------------0----1----|
-------2--------------|-----------------5----|----------------------|
--0-------------------|----------------------|-------2--------------|
----------------------|----------------------|--0-------------------|
----------------------|----------------------|----------------------|

  Q    Q    Q    Q       Q    Q    Q    Q       Q    Q    Q    Q
--3-------------------|----------------------|--1----0--------------|
-------1----0---------|-----------------1----|------------3---------|
-----------------2----|------------3---------|-----------------3----|
----------------------|-------3--------------|----------------------|
----------------------|--1-------------------|----------------------|
----------------------|----------------------|----------------------|

  Q    Q    Q    Q       Q    Q    Q    Q       Q    Q    Q    Q
----------------------|----------------------|----------------------|
----------------------|-------1--------------|----------------------|
------------0----2----|--3---------2----0----|----------------------|
-------0--------------|----------------------|------------2----3----|
----------------------|----------------------|-------3--------------|
--3-------------------|----------------------|--1-------------------|

  Q    Q    Q    Q       Q    Q    Q    Q       H.           Q
----------------------|----------------------|--------------------|
----------------------|----------------------|--8------------6----|
----------------------|-----------------5----|--8------------7----|
--5----3----2---------|------------8---------|---------------8----|
----------------------|-------6--------------|---------------8----|
-----------------1----|--4-------------------|---------------6----|

  Q    Q    Q    Q       Q    Q    Q    Q         Q    Q    Q    Q
----------------------|--0-------------------||-----------------------|
-----------------1----|-------1----0---------||-------------0----1----|
------------0---------|-----------------0----||*----------------------|
-------2--------------|----------------------||*-------2--------------|
--3-------------------|----------------------||---0-------------------|
----------------------|----------------------||-----------------------|

  Q    Q    Q    Q       Q    Q    Q    Q       Q    Q    Q    Q
--3-------------------|----------------------|--5-------------------|
-------1----0---------|------------5----7----|-------7----5---------|
----------------------|-------2--------------|-----------------5----|
-----------------2----|--0-------------------|----------------------|
----------------------|----------------------|----------------------|
----------------------|----------------------|----------------------|

  Q    Q    Q    Q       Q    Q    Q    Q       Q    Q    Q    Q
----------------------|--3-------------------|----------------------|
------------0----1----|-------1----0---------|-----------------1----|
----------------------|-----------------2----|------------3---------|
-------2--------------|----------------------|-------3--------------|
--0-------------------|----------------------|--1-------------------|
----------------------|----------------------|----------------------|

  Q    Q    Q    Q       Q    Q    Q    Q       Q    Q    Q    Q
--1----0--------------|----------------------|----------------------|
------------3---------|----------------------|-------1--------------|
-----------------3----|------------0----2----|--3---------2----0----|
----------------------|-------0--------------|----------------------|
----------------------|----------------------|----------------------|
----------------------|--3-------------------|----------------------|

  Q    Q    Q    Q       Q    Q    Q    Q       Q    Q    Q    Q
----------------------|----------------------|----------------------|
----------------------|----------------------|----------------------|
----------------------|----------------------|-----------------5----|
------------2----3----|--5----3----2---------|------------8---------|
-------3--------------|----------------------|-------6--------------|
--1-------------------|-----------------1----|--4-------------------|

  H.           Q       Q    Q    Q    Q       Q    Q    Q    Q
--------------------|----------------------|--0---------------------||
--8------------6----|-----------------1----|-------1----0-----------||
--8------------7----|------------0---------|-----------------0----*-||
---------------8----|-------2--------------|----------------------*-||
---------------8----|--3-------------------|------------------------||
---------------6----|----------------------|------------------------||

Duration Legend
---------------
W - whole
H - half
Q - quarter
E - 8th
S - 16th
T - 32nd
X - 64th
. - note dotted
|-n-|  - n-tuplets

Guitar 3

Slow Strings
     W                   W                   W
E||-------------------|-------------------|-------------------|
B||-------------------|-------------------|-------------------|
G||-------------------|-------------------|-------------------|
D||-------------------|-------------------|-------------------|
A||-------------------|-------------------|-------------------|
E||-------------------|-------------------|-------------------|

  W                   W                   W                   W
-------------------|-------------------|-------------------|-------------------|
-------------------|-------------------|-------------------|-------------------|
-------------------|-------------------|-------------------|-------------------|
-------------------|-------------------|-------------------|-------------------|
-------------------|-------------------|-------------------|-------------------|
-------------------|-------------------|-------------------|-------------------|

  W                   W                   W                   W
-------------------|-------------------|-------------------|-------------------|
-------------------|-------------------|-------------------|-------------------|
-------------------|-------------------|-------------------|-------------------|
-------------------|-------------------|-------------------|-------------------|
-------------------|-------------------|-------------------|-------------------|
-------------------|-------------------|-------------------|-------------------|

  W                   W                   W                   W
-------------------|-------------------|-------------------|-------------------|
-------------------|-------------------|-------------------|-------------------|
-------------------|-------------------|-------------------|-------------------|
-------------------|-------------------|-------------------|-------------------|
-------------------|-------------------|-------------------|-------------------|
-------------------|-------------------|-------------------|-------------------|

  W                   W                     W
-------------------|-------------------||---0----------------|
-------------------|-------------------||---1----------------|
-------------------|-------------------||*--2----------------|
-------------------|-------------------||*--2----------------|
-------------------|-------------------||---0----------------|
-------------------|-------------------||--------------------|

  W                   W                   W                   W
--L----------------|-------------------|-------------------|--0----------------|
--L----------------|--3----------------|--L----------------|--1----------------|
--L----------------|--2----------------|--L----------------|--2----------------|
--L----------------|--0----------------|--L----------------|--2----------------|
--L----------------|--0----------------|--L----------------|--0----------------|
-------------------|--2----------------|--L----------------|-------------------|

  W                   W                   W                   W
--L----------------|-------------------|-------------------|--1----------------|
--L----------------|--6----------------|--L----------------|--1----------------|
--L----------------|--7----------------|--L----------------|--3----------------|
--L----------------|--8----------------|--L----------------|--3----------------|
--L----------------|--8----------------|--L----------------|-------------------|
-------------------|--6----------------|--L----------------|-------------------|

  W                   W                   W                   W
--L----------------|-------------------|-------------------|-------------------|
--L----------------|--1----------------|--L----------------|-------------------|
--L----------------|--0----------------|--L----------------|--1----------------|
--L----------------|--3----------------|--L----------------|--1----------------|
-------------------|--0----------------|--L----------------|--3----------------|
-------------------|--1----------------|--L----------------|--4----------------|

  W                   W                   W
-------------------|-------------------|---------------------||
-------------------|--1----------------|--L------------------||
--L----------------|--0----------------|--L----------------*-||
--L----------------|--2----------------|--L----------------*-||
--L----------------|--3----------------|--L------------------||
--L----------------|--3----------------|--L------------------||

Duration Legend
---------------
W - whole
H - half
Q - quarter
E - 8th
S - 16th
T - 32nd
X - 64th
. - note dotted
|-n-|  - n-tuplets
Login or Register to remove this ad.

2 comments on I Won't Forget

un grand merci pour ces

un grand merci pour ces tabs, c'est magnifique :)

equipment

Does anyone know what he is using to get this sound? Whatever amp modeler he has is raising his pitch to sound like the original recording. I have tried Guitar Rig 3 and Gearbox to no avail.