Angel's Fear (Secret of Mana) Bass Tab

Submitted: Oct 03, 2007 by Calebelijah (Last updated: May 07, 2008)

5
Average: 5 (1 vote)
Download | Listen
Game: Secret of Mana
Composer(s): Hiroki Kikuta
Style: Transcription
Series: Mana

Click here for a video example.

AutoScroll: Slow | Medium | Fast
Fretless Bass
     W                   W                   W
G||-------------------|-------------------|-------------------|
D||-------------------|-------------------|-------------------|
A||-------------------|-------------------|-------------------|
E||-------------------|-------------------|-------------------|

  W                   W                   W                   W
-------------------|-------------------|-------------------|-------------------|
-------------------|-------------------|-------------------|-------------------|
-------------------|-------------------|-------------------|-------------------|
-------------------|-------------------|-------------------|-------------------|

  W                   H        E  E  E  E     H        E   E  E  E
-------------------|--------------------9--|--7---------------------|
-------------------|--7-----------7--9-----|--------------10--9-----|
-------------------|--0--------------------|---------------------7--|
-------------------|-----------------------|------------------------|

  H        E  E  E   E     H        E   E  E  E      H        E  E  E  E
------------------------|--------------10--9--7--|------------------------|
--7-----------------10--|--8---------------------|--10-----------9--7--0--|
--0--------------7------|------------------------|------------------------|
--------------8---------|------------------------|------------------------|

  H        E  E  E  E     H        Q.     E     W
--------------4--2--0--|------------------2--|--0----------------||
-----------------------|--1--------3---------|-------------------||
--3--------------------|---------------------|-------------------||
-----------------------|---------------------|-------------------||

Duration Legend
---------------
W - whole
H - half
Q - quarter
E - 8th
S - 16th
T - 32nd
X - 64th
. - note dotted
|-n-|  - n-tuplets
Login or Register to remove this ad.