Ads

Angel's Fear (Secret of Mana) Guitar Tab

Submitted: Oct 03, 2007 by Calebelijah (Last updated: Apr 16, 2008)

5
Average: 5 (8 votes)
Download | Listen
Game: Secret of Mana
Composer(s): Hiroki Kikuta
Style: 2 or more instruments, Transcription
Series: Mana

Click here for a video example.

AutoScroll: Slow | Medium | Fast
Piano
      Q     Q     Q.      E      Q     E   E   H
E||--12----------15----------|------------12------------|
B||----------------------13--|--15----15----------------|
G||--------14----------------|----------------14--------|
D||--------------------------|--------------------------|
A||--------------------------|--------------------------|
E||--------------------------|--------------------------|

   Q     Q     Q.      E      E   E   E   E   Q.      E
--12----------15----------|------12------------------12--|
----------------------13--|--15------15--13--15----------|
--------14----------------|------------------------------|
--------------------------|------------------------------|
--------------------------|------------------------------|
--------------------------|------------------------------|

   Q     Q     Q.      E      E   E   E   E   Q.      E
--13----------17------13--|--15--12------12--------------|
--------13----------------|----------15------13------13--|
--------------------------|------------------------------|
--------------------------|------------------------------|
--------------------------|------------------------------|
--------------------------|------------------------------|

   E   E   E   E   Q.      E      W
--11--------------------------|--------------------|
------13--11--13--------------|--------------------|
------------------12------10--|--12----------------|
------------------------------|--------------------|
------------------------------|--------------------|
------------------------------|--------------------|

   E   E   E   E   E   E   E   E      E   E   E   E   E   E   E   E
--12--------------15--12----------|--10------10--12--10--------------|
------13------15----------12--13--|------10--------------10------10--|
----------14----------------------|--------------------------11------|
----------------------------------|----------------------------------|
----------------------------------|----------------------------------|
----------------------------------|----------------------------------|

   E   E   E   E   E   E   E   E      E   E   E   E   E   E   E   E
--12--------------13--------------|------12----------------------12--|
------13------15----------12--13--|--15------15--13--15--------------|
----------14----------14----------|----------------------15----------|
----------------------------------|--------------------------15------|
----------------------------------|----------------------------------|
----------------------------------|----------------------------------|

   E   E   E   E   E   E   E   E      E   E   E   E   E   E   E   E
--13--------------17--------------|--15--12------12------------------|
----------13----------18------18--|----------15------13----------13--|
------14------14----------17------|----------------------12----------|
----------------------------------|--------------------------14------|
----------------------------------|----------------------------------|
----------------------------------|----------------------------------|

   E   E   E   E   E   E   E   E      E   E   E   E   H
--11------------------------------|----------------------------||
------13--11--13------------------|------------------12--------||
------------------12--------------|--12------12--14------------||
----------------------13------15--|------12--------------------||
--------------------------13------|----------------------------||
----------------------------------|----------------------------||

Duration Legend
---------------
W - whole
H - half
Q - quarter
E - 8th
S - 16th
T - 32nd
X - 64th
. - note dotted
|-n-|  - n-tuplets





Strings
     W                   W                   W
E||--0----------------|--5----------------|--0----------------|
B||--8----------------|--7----------------|--8----------------|
G||--5----------------|--7----------------|--5----------------|
D||--7----------------|--7----------------|--7----------------|
A||-------------------|-------------------|-------------------|
E||-------------------|-------------------|-------------------|

  W                    W                    W
--6----------------|---8----------------|---8----------------|
--6----------------|--10----------------|---8----------------|
--7----------------|--10----------------|---9----------------|
--8----------------|--10----------------|--10----------------|
-------------------|--------------------|--------------------|
-------------------|--------------------|--------------------|

  W                   W                   W                   W
--6----------------|--7----------------|--0----------------|--5----------------|
--8----------------|--8----------------|--8----------------|--7----------------|
--8----------------|--7----------------|--5----------------|--7----------------|
--8----------------|--9----------------|--7----------------|--7----------------|
-------------------|-------------------|-------------------|-------------------|
-------------------|-------------------|-------------------|-------------------|

  W                   W                    W
--0----------------|--6----------------|---8----------------|
--8----------------|--6----------------|--10----------------|
--5----------------|--7----------------|--10----------------|
--7----------------|--8----------------|--10----------------|
-------------------|-------------------|--------------------|
-------------------|-------------------|--------------------|

   W                   W                   W
---8----------------|--6----------------|--7----------------||
---8----------------|--8----------------|--8----------------||
---9----------------|--8----------------|--7----------------||
--10----------------|--8----------------|--9----------------||
--------------------|-------------------|-------------------||
--------------------|-------------------|-------------------||

Duration Legend
---------------
W - whole
H - half
Q - quarter
E - 8th
S - 16th
T - 32nd
X - 64th
. - note dotted
|-n-|  - n-tuplets

Guitar 3

Synth Strings
     H.           E  E     Q.     E  Q.     E     H.           E  E
E||------------------0--|--2------0------------|------------------0--|
B||--1------------3-----|------------3------0--|--1------------3-----|
G||---------------------|----------------------|---------------------|
D||---------------------|----------------------|---------------------|
A||---------------------|----------------------|---------------------|
E||---------------------|----------------------|---------------------|

  Q    E  E  Q.     E     H.           E  E     H.           E  E
--1----6--5--3------0--|--1------------1--0--|---------------------|
-----------------------|---------------------|--1------------------|
-----------------------|---------------------|---------------0--2--|
-----------------------|---------------------|---------------------|
-----------------------|---------------------|---------------------|
-----------------------|---------------------|---------------------|

  H        Q.     E     W                   H.           E  E
---------------------|-------------------|------------------0--|
---------------------|-------------------|--1------------3-----|
--3---------------2--|--0----------------|---------------------|
-----------3---------|-------------------|---------------------|
---------------------|-------------------|---------------------|
---------------------|-------------------|---------------------|

  Q.     E  Q.     E     H.           E  E     Q    E  E  Q.     E
--2------0------------|------------------0--|--1----6--5--3------0--|
------------3------0--|--1------------3-----|-----------------------|
----------------------|---------------------|-----------------------|
----------------------|---------------------|-----------------------|
----------------------|---------------------|-----------------------|
----------------------|---------------------|-----------------------|

  H.           E  E     H.           E  E     H        Q.     E
--1------------1--0--|---------------------|---------------------|
---------------------|--1------------------|---------------------|
---------------------|---------------0--2--|--3---------------2--|
---------------------|---------------------|-----------3---------|
---------------------|---------------------|---------------------|
---------------------|---------------------|---------------------|

  W
-------------------||
-------------------||
--0----------------||
-------------------||
-------------------||
-------------------||

Duration Legend
---------------
W - whole
H - half
Q - quarter
E - 8th
S - 16th
T - 32nd
X - 64th
. - note dotted
|-n-|  - n-tuplets

Guitar 4

Flute
     W                   W                   W
E||-------------------|-------------------|-------------------|
B||-------------------|-------------------|-------------------|
G||-------------------|-------------------|-------------------|
D||-------------------|-------------------|-------------------|
A||-------------------|-------------------|-------------------|
E||-------------------|-------------------|-------------------|

  W                   W                   W                   W
-------------------|-------------------|-------------------|-------------------|
-------------------|-------------------|-------------------|-------------------|
-------------------|-------------------|-------------------|-------------------|
-------------------|-------------------|-------------------|-------------------|
-------------------|-------------------|-------------------|-------------------|
-------------------|-------------------|-------------------|-------------------|

  W                    Q     Q     Q.      E      Q     E   E   H
-------------------|--12----------15----------|------------12------------|
-------------------|----------------------13--|--15----15----------------|
-------------------|--------14----------------|----------------14--------|
-------------------|--------------------------|--------------------------|
-------------------|--------------------------|--------------------------|
-------------------|--------------------------|--------------------------|

   Q     Q     Q.      E      E   E   E   E   Q.      E
--12----------15----------|------12------------------12--|
----------------------13--|--15------15--13--15----------|
--------14----------------|------------------------------|
--------------------------|------------------------------|
--------------------------|------------------------------|
--------------------------|------------------------------|

   Q     Q     Q.      E      E   E   E   E   Q.      E
--13----------17------13--|--15--12------12--------------|
--------13----------------|----------15------13------13--|
--------------------------|------------------------------|
--------------------------|------------------------------|
--------------------------|------------------------------|
--------------------------|------------------------------|

   E   E   E   E   Q.      E      W
--11--------------------------|--------------------||
------13--11--13--------------|--------------------||
------------------12------10--|--12----------------||
------------------------------|--------------------||
------------------------------|--------------------||
------------------------------|--------------------||

Duration Legend
---------------
W - whole
H - half
Q - quarter
E - 8th
S - 16th
T - 32nd
X - 64th
. - note dotted
|-n-|  - n-tuplets
Login or Register to remove this ad.

1 comment on Angel's Fear

Amazing tab work. Learning

Amazing tab work. Learning these immortal tunes adds a refreshingly different vocabulary to one's guitar subconscious. I didn't play Secret of Mana for about ten years, and a couple of months ago I unearthed my SNES to play for shits and giggles when I got drunk, and I was surprised to realize that many songs have never left my head all these years. This is the most prominent of them. If you're into songwriting, I'd highly recommend learning some Secret of Mana and other video game music, because it's not only highly recognizable to throw into peformances, not only very fun, but geniuinely expands your capabilities. This is getting a little loquacious. Rock on!