Merchant Theme (Secret of Evermore) Guitar Tab

Submitted: Oct 03, 2007 by Kabukibear (Last updated: Sep 19, 2009)

5
Average: 5 (5 votes)
Download | Listen
Game: Secret of Evermore
Composer(s): Jeremy Soule
Style: Arrangement, Fingerstyle

AutoScroll: Slow | Medium | Fast
Merchant Theme
~Secret of Evermore~
Composed By: Jeremy Soule
Arranged By: Justin Lincoln

     E  E  E  E  E  E     E  E  E  E  E  E     E  E  E  E  E  E
E||--------------------|-----0--------------|--------------------|
B||-----1--------3-----|--------------0-----|-----1--------------|
G||--------------------|--------2-----------|--------2-----1-----|
D||--------2--------3--|-----------------0--|-----------------0--|
A||--0--------2--------|--3-----------------|--0-----------------|
E||--------------------|-----------4--------|-----------0--------|

  E  E  E  E  E  E     E  E  E  E  E  E     E  E  E  E  E  E
--------------0--5--|-----0--------1-----|-----3--------0-----|
-----------1--------|--------------------|--------0-----------|
--------2-----------|--------0--------2--|-----------------0--|
-----2--------------|-----------0--------|--2-----------------|
--0-----------------|--3-----------------|-----------3--------|
--------------------|--------------------|--------------------|

  E  E  E  E  E  E     E  E  E  E  E  E     E  E  E  E  E  E
-----1--------1-----|-----0--------------|--------------------|
--------------------|--------3--0--------|-----1--------3-----|
--------2--------2--|--------------1-----|--------------------|
--0--------1--------|--2--------------2--|--------2--------3--|
--------------------|--------------------|--0--------2--------|
--------------------|--------------------|--------------------|

  E  E  E  E  E  E     E  E  E  E  E  E     E  E  E  E  E  E
-----0--------------|--------------------|--------------------|
--------------0-----|-----1--------------|-----------------1--|
--------2-----------|--------2-----1-----|-----2--------2-----|
-----------------0--|-----------------0--|-----------2--------|
--3-----------------|--0-----------------|--0-----3-----------|
-----------4--------|-----------0--------|--------------------|

  E  E  E  E  E  E     E  E  E  E  E  E     E  E  E  E  E  E
-----5--------1-----|-----3--------0-----|-----1--------------|
--------------------|--------0-----------|--------------3-----|
--------5--------2--|-----------------0--|--------2-----------|
--3--------0--------|--2-----------------|--0--------------3--|
--------------------|-----------3--------|-----------2--------|
--------------------|--------------------|--------------------|

  E  E  E  E  E  E     E  E  E  E  E  E     E  E  E  E  E  E
-----0--------------|--------------------|--------------------|
--------------1-----|-----3--------0-----|-----1--------------|
--------2-----------|--------------------|--------------2-----|
-----------------2--|--------3--------0--|--------2-----------|
--3--------0--------|--2-----------------|--0--------------3--|
--------------------|-----------4--------|-----------0--------|

  E  E  E  E  E  E     E  E  E  E  E  E     E  E  E  E  E  E
--------------------|--------------------|-----7--------8-----|
--------------0-----|--------------5--8--|--------------------|
-----2--------------|--------0--5--------|--------7--------9--|
-----------------0--|-----2--------------|--6--------7--------|
--------3-----------|--3-----------------|--------------------|
--1--------3--------|--------------------|--------------------|

  E  E  E  E  E  E     E  E  E  E  E  E     E  E  E  E  E  E
-----5--------7-----|-----3--------5-----|-----1--------0-----|
--------------------|--------0-----------|--------1--------0--|
--------5--------7--|-----------------5--|--------------------|
--4--------5--------|--2--------3--------|--1--------2--------|
--------------------|--------------------|--------------------|
--------------------|--------------------|--------------------|

  E  E  E  E  E  E     E  E  E  E  E  E     E  E  E  E  E  E
--------------1-----|-----1--------0-----|-----0--------------|
--------0-----------|--------0-----------|--------------3-----|
--1--2-----------2--|-----------------0--|--------2-----------|
-----------0--------|--------------------|-----------------3--|
--------------------|-----------3--------|-----------2--------|
--------------------|--3-----------------|--1-----------------|

                                                                 ^
  E  E  E  E  E  E     E  E  E       E  E  E  E  E  E     Q.     Q.
--------------------|------------||-----1--0-----------|---------5------||
-----3--------1-----|--------0---||-----------3--1--0--|---------5------||
--------1--------2--|-----1-----*||--2-----------------|--2------5------||
--------------------|--2--------*||--------------------|----------------||
--------------------|------------||--0-----------------|----------------||
--0--------1--------|--0---------||--------------------|----------------||

Duration Legend
---------------
W - whole
H - half
Q - quarter
E - 8th
S - 16th
T - 32nd
X - 64th
. - note dotted
|-n-|  - n-tuplets

Tablature Legend
----------------
^ - brush up
Login or Register to remove this ad.

3 comments on Merchant Theme

Sounds great! Fun too!

Sounds great! Fun too!

Really really good... i lean

Really really good... i lean it at 3 hours ^^

awesome arrangement I love

5

awesome arrangement I love Jeremy Soule musical work.