Ads

Main Theme (Rocko's Modern Life) Guitar Tab

Submitted: Jun 14, 2008 by Tyrant (Last updated: Jun 14, 2008)

5
Average: 5 (1 vote)
Download | Listen
Game: Rocko's Modern Life
Composer(s): Unknown
Style: 2 or more instruments, Transcription

This song is also called Theme Song

AutoScroll: Slow | Medium | Fast
Guitar 1:                                                                 
E|--8--6--------------------|------------------|------------------|
B|--8--6----8-----6------6--|------------------|------------------|
G|----------------10-----5--|------------------|------------------|
D|----------7---------------|------------------|------------------|
A|--------------------------|------------------|------------------|
E|--------------------------|------------------|------------------|


                                                                      
------------------|------------------|-------------------------------|
------------------|------------------|--9---12------------7----------|
------------------|------------------|--13--11-----13-----11-----11--|
------------------|------------------|-------------13------------11--|
------------------|------------------|-------------------------------|
------------------|------------------|-------------------------------|


                                                                   
--10--8------------8--------|------------------|------------------|
--10--8-----10-----8-----8--|------------------|------------------|
------------9------------7--|------------------|------------------|
----------------------------|------------------|------------------|
----------------------------|------------------|------------------|
----------------------------|------------------|------------------|


Guitar 2:
E||------------------|------------3-5-7--8-7-8----------------------|
B||------------------|--------2-4--------------8-7-8--8-7-6--4-3-2--|
G||------------------|----0-3---------------------------------------|
D||------------------|--2-------------------------------------------|
A||------------------|----------------------------------------------|
E||------------------|----------------------------------------------|


                                                                        
---------------------|------------------|---6-5-4-3-2-1-0--------------|
---1-----------------|------------------|-----------------3-4----------|
---------------------|------------------|----------------------------5-|
---------------------|------------------|------------------------------|
---------------------|------------------|------------------------------|
---------------------|------------------|------------------------------|


                                                                               
-----------2--2-1--1-4--4--3-3--6-6--5-5--|---8-8--6-6-9-9-8-11----10--9----9-|
------4--4--------------------------------|-----------------------------------|
----5-------------------------------------|-----------------------------------|
------------------------------------------|-----------------------------------|
------------------------------------------|-----------------------------------|
------------------------------------------|-----------------------------------|


                                                                      
--------------------|------------------|---6-7-6-7-------------------|
--------------------|------------------|-----------8-9-8-9-----------|
--------------------|------------------|-------------------9---------|
--------------------|------------------|-----------------------------|
--------------------|------------------|-----------------------------|
--------------------|------------------|-----------------------------|


                                                      
--------------------|--------------4-5-4-5-10-----13-|
--------------------|---------6----------------------|
------------------7-|----6-7-------------------------|
--------------------|--------------------------------|
--------------------|--------------------------------|
--------------------|--------------------------------|


                                                                                
----10--8--------------------|------------------|---5-6-5-6-3-4-3-2--1---------|
-----------10--8-------------|------------------|------------------------------|
------------------10--7------|------------------|------------------------------|
-----------------------------|------------------|------------------------------|
-----------------------------|------------------|------------------------------|
-----------------------------|------------------|------------------------------|


                                                                   
------------------10-|---9-8-7-6--5-4--3-2-1-0-3-2--2-1--1-0--0---|
---------------------|------------------------------------------3-|
---------------------|--------------------------------------------|
---------------------|--------------------------------------------|
---------------------|--------------------------------------------|
---------------------|--------------------------------------------|


                                           
-------------------|---------------------||
-------------------|---4-----------------||
-------------------|---------------------||
-------------------|---------------------||
-------------------|---------------------||
-------------------|---------------------||



Guitar 3:
E||------------------|------------------|-----------------------|
B||------------------|------------------|-----------------------|
G||------------------|------------------|-----------------------|
D||------------------|------------------|-------1----4----3--1--|
A||------------------|------------------|--3---------5----------|
E||------------------|------------------|-----------------------|


                                                                             
-------------------|------------------|------------------|------------------|
-------------------|------------------|------------------|------------------|
-------------------|------------------|------------------|------------------|
-------------------|------------------|------------------|------------------|
--3----------------|------------------|------------------|------------------|
-------------------|------------------|------------------|------------------|


                                                               
-----------------------|-------------------|------------------|
-----------------------|-------------------|------------------|
------------0----------|-------------------|------------------|
-------2----1----4--2--|-------------------|------------------|
--4--------------------|--4----------------|------------------|
-----------------------|-------------------|------------------|


                                                               
-----------------------|-------------------|------------------|
-----------------------|-------------------|------------------|
------------0----------|-------------------|------------------|
-------2----1----4--2--|--0----------------|------------------|
--4--------------------|-------------------|------------------|
-----------------------|-------------------|------------------|


                                                              
------------------|------------------|-----------------------|
------------------|------------------|-----------------------|
------------------|------------------|-----------------0-----|
------------------|------------------|--0----0----6-------3--|
------------------|------------------|-------8----7----------|
------------------|------------------|-----------------------|


                                                               
-------------------|------------------|----2-7---------------||
-------------------|------------------|--4-4-----------------||
-------------------|------------------|----------------------||
--0----------------|------------------|----------------------||
-------------------|------------------|----------------------||
-------------------|------------------|----------------------||
Login or Register to remove this ad.