Ads

Magna Centipede's Stage (Mega Man X2) Guitar Tab

Submitted: Mar 13, 2008 by Lybaerd (Last updated: Oct 13, 2010)

5
Average: 5 (3 votes)
Download | Listen
Game: Mega Man X2
Composer(s): Yuki Iwai
Style: 2 or more instruments, Transcription
Series: Mega Man

AutoScroll: Slow | Medium | Fast
Game: Rock Man X2
Song: Magna Centipede Stage Theme
Original Composer: Yuki Iwai
Tabbed By: AutoRaion
--------------------
      
e|-------|       e|-------|       e|-------|                
B|-------|       B|-------|       B|-------|   
G|6-6-6-6|       G|5-5-5-5|       G|2-2-2-2|              
D|4-4-4-4|       D|3-3-3-3|       D|2-2-2-2|               
A|-------|       A|-------|       A|-------|         
E|-------| X2->  E|-------| X2->  E|-------| X4

e|------9---12-9-------------------10-12-14--15-14--------------19|
B|12-14----------14-10--12-14-12------------------17-14-15-17-15--|
G|----------------------------------------------------------------|
D|----------------------------------------------------------------|
A|----------------------------------------------------------------|
E|----------------------------------------------------------------|
                                         
                                                    S
e|10---10-12-13-14-12-10---------------------12-14-14|
B|----------------------14-10--12-14-15-17-15------12|
G|---------------------------------------------------|
D|---------------------------------------------------|
A|---------------------------------------------------|
E|---------------------------------------------------|

e|-----------|       e|---------------|    
B|-----------|       B|---------------|     
G|4----------|       G|9--------------| 
D|4-4-5-5-5-7|       D|9-9-10-10-10-12| 
A|--4-5-5-5-7|       A|--9-10-10-10-12|
E|-----------| X4->  E|---------------| X3


Key
-----------
S  =Slide
-> = Continue to next bar
Login or Register to remove this ad.