Ads

Spark Mandrill's Stage (Mega Man X) Guitar Tab

Submitted: Oct 03, 2007 by archard

0
Download | Listen
Game: Mega Man X
Composer(s): Toshihiko Horiyama, Setsuo Yamamoto, Yuki Iwai, Yuko Takehara
Style: Transcription
Series: Mega Man

AutoScroll: Slow | Medium | Fast
Sparkman Drill's Stage
Megaman X
Snes

Generally quite a fast piece but would make a
Nice solo.

E------------------------------------------------------------------------
B-10h12-109-10-9-10-----------------------------------------------------
G--------------------9-11------------------------------------------------
D------------------------------------------------------------------------
A------------------------------------------------------------------------
E------------------------------------------------------------------------

E-----------------9------------------------------------------------------
B----9---10---12-----12----10-9----7-------7----6-7----------------------
G------------------------------------9~-------6--------------------------
D--11--11---11--11--------------------------7----------------------------
A------------------------------------------------------------------------
E------------------------------------------------------------------------

E-------------------9-7--7-----------------------------------------------
B----9---10---12-----------10-7--9---------------------------------------
G----------------------------------9~------------------------------------
D--11--11---11---11------------------------------------------------------
A------------------------------------------------------------------------
E------------------------------------------------------------------------

E------------------------------------------------------------------------
B------5-7~------9---10---12----12-14--12~--10/9--7----------------------
G----6----------------------------------------------9~-------------------
D---7----------11--11---11---11------------------------------------------
A--9---------------------------------------------------------------------
E------------------------------------------------------------------------

E----------------------------9-7-7~--------------------------------------
B--7---6-7-----9---10---12----------10--7--9~----------------------------
G-----6------------------------------------------------------------------
D----7-------11--11---11---11--------------------------------------------
A------------------------------------------------------------------------
E------------------------------------------------------------------------

E-7h9-7---7---7-5---4----------------------------------------------------
B-------9----6---------------9---10-10h12--10----------------------------
G-----------6-----6-----11-----------------------------------------------
D---------------------11---11--11----------------------------------------
A------------------------------------------------------------------------
E------------------------------------------------------------------------

E------------------------------------------------------------------------
B--9---7~--6h7-9-7h9-10~---12h14-12--------------------------------------
G-----6----------------------------14-13---------------------------------
D----7-------------------------------------------------------------------
A------------------------------------------------------------------------
E------------------------------------------------------------------------

E-------------------------12h14-12--9-12h14--12-9-12h14-13~~-------------
B----9-12-9-12-12---11-12------------------------------------------------
G---9--------------------------------------------------------------------
D--9-------------14------------------------------------------------------
A------------------------------------------------------------------------
E------------------------------------------------------------------------

E--12-14~-14p12--------12--------------------9~--------------------------
B--------------14p12-14---11-12~~-10h12-10h12----------------------------
G------------------------------------------------------------------------
D------------------------------------------------------------------------
A------------------------------------------------------------------------
E------------------------------------------------------------------------

V.fast
E--9----------------------9--16-17-16-17-16-17-16-12-14-12-14~-----------
B---12-10----9-----9-10-12-----------------------------------------------
G---------11--9-11-------------------------------------------------------
D------------------------------------------------------------------------
A------------------------------------------------------------------------
E------------------------------------------------------------------------

E--14-12------------------------------------------17-17-16-17-16---------
B-------12~--14-12--------------------12-14-14-17------------------------
G-----------------12~--14--14---13-14------------------------------------
D------------------------16--16------------------------------------------
A------------------------------------------------------------------------
E------------------------------------------------------------------------

E--12-14~~~--------------------------------------------------------------
B----------------------------------------5-7-----------------------------
G------------------------------------6-7---------------------------------
D------------------------------------------------------------------------
A------------------------------------------------------------------------
E------------------------------------------------------------------------

Tab by: [email protected]
http://www.geocities.com/vganimegt
Login or Register to remove this ad.

1 comment on Spark Mandrill's Stage

dude this rules thanks for

dude this rules thanks for tabbing this out.