Ads

The Last Duel (Lufia 2) Bass Tab

Submitted: Mar 22, 2009 by auriplane

5
Average: 5 (1 vote)
Download | Listen
Game: Lufia 2
Composer(s): Yasunori Shiono
Style: Transcription

AutoScroll: Slow | Medium | Fast
                     Lufia II - The Last Duel BASS TAB
                          Song by Yasunori Shiono

                  Tabbed by auriplane ([email protected])

Four-string bass, standard tuning.

    [A]

G |----------------|----------------|----------------|----------------|
D |0---------------|----------------|0---------------|----------------|
A |----------------|--------------3-|----------------|----------------|
E |----------------|----------------|----------------|----------------|

    [B]

G |----------------|----------------|----------------|----------------|
D |0---------------|----------------|----------------|----------------|
A |----------------|------------3---|1---------------|------------3---|
E |----------------|----------------|----------------|----------------|

G |----------------|----------------|----------------|----------------|
D |0---------------|----------------|----------------|----------------|
A |----------------|------------3---|1---------------|------------3---|
E |----------------|----------------|----------------|----------------|

G |----------------|----------------|----------------|----------------|
D |0---------------|----------------|0---------------|----------------|
A |----------------|--------------3-|----------------|------------3---|
E |----------------|----------------|----------------|----------------|

    [C]

G |----------------|----------------|----------------|----------------|
D |0-0-0-0-0-0-0-00|0-0-0-0-3-0-2---|----------------|----------------|
A |----------------|--------------3-|1-1-1-1-1-1-1-1-|1-1-1-1-1-0-1-3-|
E |----------------|----------------|----------------|----------------|

G |----------------|----------------|----------------|----------------|
D |0-0-0-0-0-0-0-0-|0-0-0-0-3-0-2---|----------------|----------------|
A |----------------|--------------3-|1-1-1-1-1-1-1-1-|1-1-1-1-1-0-1-3-|
E |----------------|----------------|----------------|----------------|

G |----------------|----------------|----------------|----------------|
D |0-0-0-0-0-0-0-0-|0-0-0-0-0-0-0-0-|0-0-0-0-0-0-0-0-|0-0-0-0-0-0-0-0-|
A |----------------|----------------|----------------|----------------|
E |----------------|----------------|----------------|----------------|

    [D]

G |----------------|----------------|----------------|----------------|
D |----------------|----------------|0-0-0-0-0-0-0-0-|0-0-0-0-0-0-----|
A |1-1-1-1-1-1-1-1-|3-3-3-3-3-3-3-3-|----------------|------------3-3-|
E |----------------|----------------|----------------|----------------|

G |----------------|----------------|----------------|----------------|
D |----------------|----------------|0-0-0-0-0-0-----|0-0-0-0-0-0-----|
A |1-1-1-1-1-1-1-1-|3-3-3-3-3-3-3-3-|------------3-3-|------------3-3-|
E |----------------|----------------|----------------|----------------|

G |----------------|----------------|----------------|----------------|
D |----------------|----------------|0-0-0-0-0-0-0-0-|0-0-0-0-0-0-----|
A |1-1-1-1-1-1-1-1-|3-3-3-3-3-3-3-3-|----------------|------------3-3-|
E |----------------|----------------|----------------|----------------|

G |----------------|----------------|
D |----------------|----------------|
A |1-1-1-1-1-1-1-1-|3-3-3-3-3-3-3-3-|
E |----------------|----------------|

    [E]

G |----------------|----------------|----------------|----------------|
D |0---------------|----------------|0---------------|----------------|
A |----------------|----------------|----------------|----------------|
E |----------------|----------------|----------------|----------------|

    Repeat back to B.
Login or Register to remove this ad.

1 comment on The Last Duel

Perfect

5

Spot on and easy to read. Thanks!